Все песни

Все исполнители

Who Wants To Live Forever

Автор: Queen

Guitar 1:

E|-------------|
B|-------------|
G|-4/54--2--4~-|
D|-------------|
A|-------------|
E|-------------|

Guitar 2:
E|------------------------------------------------------------|
B|------------------------------------------------------------|
G|-12~--11---9~-----12~---11---9~----11h12-12--11h12-12/14-16-|
D|---------9-----------------9--------------------------------|
A|------------------------------------------------------------|
E|------------------------------------------------------------|

E|------------------------------------------------------------|
B|------------------------------------------------------------|
G|---9-11-11b12-b12 b12--9------------------------------------|
D|-9-----------------------12--14~-12----------------------10-|
A|------------------------------------14-12--12------------10-|
E|----------------------------------------------15--14-12--8--|

Guitar 1 repeats itself when it can be bothered throughout.

Most of the vibratos are to keep your fingers happy throughout,
except for the one on fret 14 in the fast bit.

Guitar 2 does this next bit when he repeats the chorus twice,
at some point, still with fuzz/ distortion/ whatever. For
those of you who really wanted to know:

E|-11b12-11-9----------|
B|------------12-10----|
G|------------------12-|
D|---------------------|
A|---------------------|
E|---------------------|

Have fun...

Интересные статьи

Собчак снова опозорила Волочкову
2011-12-04
Всем известно о давнем соперничестве между скандальной телеведущей Ксенией Собчак и балериной Анастасией Волочковой, которое видимо закончится не скоро.
> читать полностью

1 - Сайт содержит тексты песен, аккорды, табулатуры