Все песни

Все исполнители

We Are The Champions

Автор: Queen

Dm (V)
E|--------6--5--6-------5----5-|
B|-----7-----------7----5----5-|
G|--7-------------------5----5-|
D|----------------------0------|
A|---------------------------5-|
E|-----------------------------|

Riff-2:
E|-------1--5--1-----6---------------------5--------8--6-------|
B|----------------1-----6---------------6-----6-----------6--6-|
G|----5--------------------5--5------5-----------5-------------|
D|-3------------------------------3----------------------------|
A|-------------------------------------------------------------|
E|-------------------------------------------------------------|

E|------------------------------------------------------------|
B|------------------------------------------------------------|
G|----------------------------0-------0------0-------0------2-|
D|--3------2------0-----------------------------------------0-|
A|----------------------------3-------3------3-------3--------|
E|-----------------------3------------------------------------|

Riff-3:
E|------------------------2------|
B|---------3--------------3------|
G|---------4--------------4------|
D|---------5---------------------|
A|--------------0--2-----------2-|
E|--3----------------------------|

E|---------3--------------------------------------------2------|
B|---------5-------------3---------------3--------------3------|
G|---------4------5------2---------------4--------------4------|
D|--2-------------5------0---------------5---------------------|
A|----------------3---------------------------0--2-----------2-|
E|--------------------------------3----------------------------|

E|---------3-------------------------------------------------|
B|---------5---------------0--0------------------------------|
G|---------5-------------------------------------------------|
D|-------------------------3--2------2-----------------------|
A|--3------3--2--0-------------------0------2----3--2------0-|
E|------------------4----------------------------------------|

E|-------------------------------------------------------------|
B|--1------0----1--0--------------0-----------1--0-----------0-|
G|--0---------------------2--------------0--------------0------|
D|-------------------------------------------------------------|
A|--3----------------------------------------------------------|
E|-------------------------------------------------------------|

E|---------------------------------3-3-3-|
B|--------------1------------------6-6-6-|
G|--3------0-------3------0--------5-5-5-|
D|---------------------------------0-0-0-|
A|---------------------------------------|
E|---------------------------------------|

Riff -4:
E|------------------3------------------------------------------|
B|---------3-----------3-----3-------------------3-------------|
G|---0-3-0----3--0--------3-----3--0----0--3--0-----3--0--3--3-|
D|-0------------------------------------------------------3--5-|
A|--------------------------------------------------------5--5-|
E|-------------------------------------------------------------|

E|------------------------------------------1--5--1----------5-|
B|--------------3--------1--1------------3-----------3--3------|
G|-----0--3--0-----3--0--0--0---------2------------------------|
D|-0---------------------0--0-----0----------------------------|
A|-------------------------------------------------------------|
E|-------------------------------------------------------------|

E|--------1--5--1-----0-----5-----------1--5--1-----0-----3-|
B|-----3-----------3-----1-----------3-----------3-----1----|
G|--2-----------------------------2-------------------------|
D|----------------------------------------------------------|
A|----------------------------------------------------------|
E|----------------------------------------------------------|

E|--------1--5--1-----0---------------1----5----6-------|
B|-----3-----------3-----1-------------------------6----|
G|--2-----------------------2-------------------------5-|
D|--------------------------------3---------------------|
A|------------------------------------------------------|
E|------------------------------------------------------|

E|---------8--6------------------------------------------------|
B|-----1---------6---------------------------------------------|
G|-------------------------------------------------------------|
D|-3-------------------3----2----0---------------------------0-|
A|-----------------------------------------3----3----3---3-----|
E|------------------------------------3------------------------|

Повторить Riff -3.

Riff -5:
E|------------------------2------|
B|---------3--------------3------|
G|---------4--------------4------|
D|---------5---------------------|
A|--------------0--2-----------2-|
E|--3----------------------------|

E|---------3---------------------------------------------2-|
B|---------5-------------3--3------------3---------------3-|
G|---------4-----5--5----2--2------------4---------------4-|
D|--2------------5--5----0--0------------5-----------------|
A|---------------3--3--------------------------0--2------2-|
E|--------------------------------3------3--3--------------|

E|---------------------------------------------------------|
B|-------------------------0-------------------------------|
G|----------------------------2----------------------------|
D|-------------------3--2----------2-----------------------|
A|--3-----2--0---------------------0------2----3--2------0-|
E|--------------4------------------------------------------|

E|---------------------------------------------------------|
B|--1-----0----1--0------------0----------1--0-----------0-|
G|--0--------------------2-----------0--------------0------|
D|---------------------------------------------------------|
A|--3------------------------------------------------------|
E|---------------------------------------------------------|

E|------------------------------3-3-3-|
B|-------------1----------------6-6-6-|
G|--3-----0-------3------0------5-5-5-|
D|------------------------------0-0-0-|
A|------------------------------------|
E|------------------------------------|

Текст:

I've paid my dues
Time after time
I've done my sentence
But committed no crime
And bad mistakes
I've made a few
I've had my share of sand
Kicked in my face
But I've come through
And I need to go on and on and on and on

We are the champions - my friend
And we'll keep on fighting till the end
We are the champions
We are the champions
No time for losers
Cause we are the champions of the world

I've taken my bows
And my curtain calls
You've bought me fame and fortune
And everything that goes with it
I thank you all
But it's been no bed of roses no pleasure cruise
I consider it a challenge before the whole human race
And I ain't gonna lose
And I need to go on and on and on and on

We are the champions - my friend
And we'll keep on fighting till the end
We are the champions
We are the champions
No time for losers
'Cause we are the champions of the world

We are the champions - my friend
And we'll keep on fighting till the end
We are the champions
We are the champions
No time for losers
Cause we are the champions

Интересные статьи

Собчак снова опозорила Волочкову
2011-12-04
Всем известно о давнем соперничестве между скандальной телеведущей Ксенией Собчак и балериной Анастасией Волочковой, которое видимо закончится не скоро.
> читать полностью

1 - Сайт содержит тексты песен, аккорды, табулатуры