Все песни

Все исполнители

These Are The Days Of Our Lives (2 вариант)

Автор: Queen

guitar solo
E|------------------------------------------|
B|-----------________-----------------------|
G|--b14V-----14r12p10-9---7--7/9---10--9v---|
D|------------------------------------------|
A|------------------------------------------|
E|------------------------------------------|

E|-------------------------------------------------------|
B|-------------------------------------------------------|
G|-10h12----10--9----10--7-----9--7---7--9--10r9-7-9p75--|
D|-------------------------------------------------------|
A|-------------------------------------------------------|
E|-------------------------------------------------------|

E|--------------------------|
B|--------------------------|
G|---14p12-14b15r10----12---|
D|--------------------------|
A|--------------------------|
E|--------------------------|

E|----12b13v---13r12p10----10--------------------------|
B|-10-------------------13----13p10----10--------------|
G|----------------------------------12----12p109-10p9--|
D|-----------------------------------------------------|
A|-----------------------------------------------------|
E|-----------------------------------------------------|

E|-----------------|
B|-----------------|
G|-----------------|
D|-12p10-12/14___--|
A|-----------------|
E|-----------------|

E|----14b15v---15r14p12----12---------------------|
B|-12-------------------15----15p12----12---------|
G|----------------------------------14----14p1211-|
D|------------------------------------------------|
A|------------------------------------------------|
E|------------------------------------------------|

E|------------------|
B|--------------15--|
G|-12p11------------|
D|--------14p12-----|
A|------------------|
E|------------------|

E|----------------------------------------------------------|
B|-15/17-1513---12__108-10/12-------------------------------|
G|--------------------------------<12-12-12-12-12-12-12-12>-|
D|----------------------------------------------------------|
A|----------------------------------------------------------|
E|----------------------------------------------------------|

E|---------------------------|
B|-17r15brbrp13-12-13___/20--|
G|---------------------------|
D|---------------------------|
A|---------------------------|
E|---------------------------|

E|--------------------------------------------|
B|-20b22----20--18--17------------------------|
G|---------------------19--17--16-17-19-------|
D|--------------------------------------17----|
A|--------------------------------------------|
E|--------------------------------------------|

E|--------------20--19--17---------------------------------|
B|-20b22___rp18------------20-18-17------------------------|
G|----------------------------------19-17-16-17-19----17---|
D|-------------------------------------------------17------|
A|---------------------------------------------------------|
E|---------------------------------------------------------|

E|---------------------------------------------------|
B|-16b17---------------------------------------------|
G|--------17-15--------------------------------------|
D|--------------17-16-15-13b-------------------------|
A|---------------------------15-13-------------------|
E|---------------------------------15-14-12b13___----|

E|------------------------|
B|------------------------|
G|------------------------|
D|------10--12b13r-12p10--|
A|--12--------------------|
E|------------------------|

Интересные статьи

Собчак снова опозорила Волочкову
2011-12-04
Всем известно о давнем соперничестве между скандальной телеведущей Ксенией Собчак и балериной Анастасией Волочковой, которое видимо закончится не скоро.
> читать полностью

1 - Сайт содержит тексты песен, аккорды, табулатуры