Все песни

Все исполнители

The Show Must Go On (2 вариант)

Автор: Queen

E|---------------------------------|
B|-3-3-3-3-2-2-2-2-5-5-5-5-3-3-3-3-|
G|-4-4-4-4-4-4-4-4-4-4-4-4-4-4-4-4-|
D|-4-4-4-4-4-4-4-4-4-4-4-4-4-4-4-4-|
A|-2-----------------------------0-|
E|-------------------------------3-|

E|-----------------------------------------|
B|-3-3-3-3-2-2-2-2-5-5-5-5-3-3-3-3-3-3-3-3-|
G|-4-4-4-4-4-4-4-4-4-4-4-4-4-4-4-4-4-4-4-4-|
D|-5-5-5-5-5-5-5-5-5-5-5-5-5-5-5-5-5-5-5-5-|
A|-----------------------------------------|
E|-------------------------------0---------|

E|----------------------------------|
B|-2-2-2-2-2-2-2-2-2-2-2-2-0--------|
G|-4-4-4-4-4-4-4-4-3-3-3-3-0------3-|
D|-5-5-5-5-4-4-4-4-4-4-4-4-2--------|
A|----------------------------------|
E|--------2---------------0---------|

Второй куплет играется почти также, только все ноты на 1 тон
выше (2 лада на гитаре)

Проигрыш (My soul is painted like a wings of butterflies...)

e)-0------0---------------------0------0--------|
B)-0------1---0---1------3------0------1------3-|
G)-0------2-------2------4------0------2------2-|
D|---------------3------5-----------------------|
A|-------0----------------------------0---------|
E)-0----------3---1-------------0---------------|
   My..           Fairy...      grow...       fly...

Кода  (With the show will go on...)

E|---------------------------------|
B|-5------3---2---5------3---2---3-|
G|-4--------------3--------------4-|
D|-5--------------5--------------5-|
A|---------------------------------|
E|---------------------------------|

Интересные статьи

Собчак снова опозорила Волочкову
2011-12-04
Всем известно о давнем соперничестве между скандальной телеведущей Ксенией Собчак и балериной Анастасией Волочковой, которое видимо закончится не скоро.
> читать полностью

1 - Сайт содержит тексты песен, аккорды, табулатуры