Все песни

Все исполнители

The Miracle

Автор: Queen

E|-17-16-17---b19vvr17p16-14-16--b17vvr16p14----------|
B|-------------------------------------------17-------|
G|----------------------------------------------16b18-|
D|----------------------------------------------------|
A|----------------------------------------------------|
E|----------------------------------------------------|

E|----------------------14-16-b17vv_r16-14-16-17--19--19b20vv-|
B|-------------17-14-17---------------------------------------|
G|-16-16-16b18------------------------------------------------|
D|------------------------------------------------------------|
A|------------------------------------------------------------|
E|------------------------------------------------------------|

E|19--17--15--17b19___r17p15-17-------------15--17--17b19-|
B|------------------------------17__---15-----------------|
G|--------------------------------------------------------|
D|--------------------------------------------------------|
A|--------------------------------------------------------|
E|--------------------------------------------------------|

E|-21b22---b22--21-|
B|-----------------|
G|-----------------|
D|-----------------|
A|-----------------|
E|-----------------|

E|-----------------------------------------------|
B|-12b14vvv-----------12b14___t15___p14r12p9-12v-|
G|-----------------------------------------------|
D|-----------x-x-8-x-----------------------------|
A|-----------x-x-x-10----------------------------|
E|-----------x-x-x-x-----------------------------|

E|-----------------------------------------|
B|-9---------------------------------------|
G|-x-9-11--11b_13_t14v---11b__13_r11p911p9-|
D|-----------------------------------------|
A|-----------------------------------------|
E|-----------------------------------------|

E|--------------------------------------------------|
B|-12b__14-t14p12t14p11t14p10t14p9------------------|
G|--------------------------------t14p12t14p11t14p9-|
D|--------------------------------------------------|
A|--------------------------------------------------|
E|--------------------------------------------------|

E|--------------------------------|
B|--------------------------------|
G|--------------------------------|
D|-t14p11t14p9t14-----------------|
A|---------------h11t14p10t14p9-7-|
E|--------------------------------|

E|-x--------x---------x---------x-x-------|
B|-16b18----x-18b19---x-19b21---x-x-20b21-|
G|-x--------x-----------x-------x-x-------|
D|----------------------------------------|
A|----------------------------------------|
E|----------------------------------------|

E|--------------------|
B|-18__12b14t15p14r12-|
G|--------------------|
D|--------------------|
A|--------------------|
E|--------------------|

E|------------------------------------|
B|-12b14t15p14r12p9-12b14_t15__pr12p9-|
G|------------------------------------|
D|------------------------------------|
A|------------------------------------|
E|------------------------------------|

E|-----------------------------------------|
B|-12b14t17__pr12p9h12b14_t18b_b19r18rp12v-|
G|-----------------------------------------|
D|-----------------------------------------|
A|-----------------------------------------|
E|-----------------------------------------|

E|------------------------------------|
B|-9----------------------------------|
G|---12-11-9--------------------------|
D|-----------11-9---------------------|
A|-----------------11-10-9-7---7------|
E|---------------------------9---9-7v-|

Интересные статьи

Собчак снова опозорила Волочкову
2011-12-04
Всем известно о давнем соперничестве между скандальной телеведущей Ксенией Собчак и балериной Анастасией Волочковой, которое видимо закончится не скоро.
> читать полностью

1 - Сайт содержит тексты песен, аккорды, табулатуры