Все песни

Все исполнители

The Millionaire Waltz

Автор: Queen

1st solo
E|------------------------------------------------------------|
B|----------------------------------5-6----8-10-8-10-11-13-15-|
G|-13__12__10__5-----6h85-----7-------------10------------15--|
D|------------------------------------------------------------|
A|------------------------------------------------------------|
E|------------------------------------------------------------|

E|--------------------------------|
B|--------------------------------|
G|-15--------------------------13-|
D|------13---------------12-15----|
A|---------15-13-12-13------------|
E|--------------------------------|

E|--------------------------------------------|
B|------------13---13-------------------------|
G|--------------------15-14-15-12-------------|
D|------12-15---------------------13----------|
A|-*-13------------------------------15-13----|
E|-----------------------------------------15-|

2nd solo
E|------------------------------------------------------------|
B|-4--3434---3434/13-1313---11h13p11-9h11p9-8h9p8-6h8p6-------|
G|------------------------------------------------------8-5-6-|
D|------------------------------------------------------------|
A|------------------------------------------------------------|
E|------------------------------------------------------------|

E|-------------------------------------------|
B|-2--1212---1212/11-1111---9--8--6--5-------|
G|---------------------------------------5-6-|
D|-------------------------------------------|
A|-------------------------------------------|
E|-------------------------------------------|

E|--------------------------------------13b15-13-|
B|-4--3434---3434/13-1313---1413--131613---------|
G|------------------------------16---------------|
D|-----------------------------------------------|
A|-----------------------------------------------|
E|-----------------------------------------------|

Интересные статьи

Собчак снова опозорила Волочкову
2011-12-04
Всем известно о давнем соперничестве между скандальной телеведущей Ксенией Собчак и балериной Анастасией Волочковой, которое видимо закончится не скоро.
> читать полностью

1 - Сайт содержит тексты песен, аккорды, табулатуры