Все песни

Все исполнители

The Invisible Man

Автор: Queen

E|-----------------------------------------------------------|
B|-----------------------------------------------------------|
G|-15b16-b17-b17-16-b19-17b19-17-b19-17-b19r-17-17b19-17-b19-|
D|-----------------------------------------------------------|
A|-----------------------------------------------------------|
E|-----------------------------------------------------------|

E|------------------|
B|------------------|
G|-17-b19-17-b19-17-|
D|------------------|
A|------------------|
E|------------------|

E|------------------------------------------------------|
B|-16-2020191817--------20--1817--------20x1817---------|
G|--------------20191817--(0)---20191817-------20191720-|
D|------------------------------------------------------|
A|------------------------------------------------------|
E|------------------------------------------------------|

E|-----------------|
B|20191817---------|
G|--------20191817-|
D|-----------------|
A|-----------------|
E|-----------------|

E|----------------------20191817---------------------|
B|20191917----------2019--------20191817191817-------|
G|--------2019181717--------------------------201917-|
D|---------------------------------------------------|
A|---------------------------------------------------|
E|---------------------------------------------------|

E|--------------------------------------------|
B|--------------------------------------20----|
G|------------------------17___/19b__21--1720-|
D|-2019171917--1717___/20---------------------|
A|-----------18-------------------------------|
E|--------------------------------------------|

E|----------------------------____-----------------------|
B|171817--172017--171817--17201817--171817--172017--1720-|
G|------20------20------20--------20------20------20-----|
D|-------------------------------------------------------|
A|-------------------------------------------------------|
E|-------------------------------------------------------|

E|------------------------------20---(1818)20191817---------|
B|-20b22vv--20191817-------------------------------20191817-|
G|------------------2019171917vv---17-----------------------|
D|----------------------------------------------------------|
A|----------------------------------------------------------|
E|----------------------------------------------------------|

E|---------|-20191817-----------------20191817..-|
B|---------|---------20191817--------------------|
G|20191817-|-----------------20191817------------|
D|---------|-------------------------------------|
A|---------|-------------------------------------|
E|---------|-------------------------------------|

Интересные статьи

Собчак снова опозорила Волочкову
2011-12-04
Всем известно о давнем соперничестве между скандальной телеведущей Ксенией Собчак и балериной Анастасией Волочковой, которое видимо закончится не скоро.
> читать полностью

1 - Сайт содержит тексты песен, аккорды, табулатуры