Все песни

Все исполнители

Son And Daughter

Автор: Queen

The rythm is not `regular` at several places.
E|-------------------------------------------------------------|
B|-------------------------------------------------------------|
G|-------------------------------------------------------------|
D|---------------------------5-----------------------------5---|
A|-----------5---5-5-5-5-5h7-----7---------5---5---5-5-5h7---7-|
E|-0--0-0-x------------------------0-0-5/7---------------------|

E|-------------------------------------------------------------|
B|-------------------------------------------------------------|
G|-----------------------------------7-7-7-7-------------------|
D|---------------------5-5-5-5/7-7h9---------9p7-9p7-5b--------|
A|-7-7-----5-5-5-5-5h7----------------------------------7-7-7v-|
E|-----5/7-----------------------------------------------------|

E|-------------------------------------------------------------|
B|----------------------------------------12-------------------|
G|--------------------------9---9-9-11b13------13r11p9----9--/-|
D|-----------9-9-9-11---*-*----------------------------11------|
A|-/11-11-11---------------------------------------------------|
E|-------------------------------------------------------------|

E|--------------------------------------------------------|
B|--------------------------------------------------------|
G|---------------------______----12b----------------------|
D|-------12---12h13p12-121212h14-----14-14-14----------12-|
A|-12h14--------------------------------------12-12h14----|
E|--------------------------------------------------------|

E|------------------------------|
B|------------------------------|
G|-----------_______---12b------|
D|-12---12---121212h14-------14-|
A|------------------------------|
E|------------------------------|

E|--------------------------------------------|
B|--------------------------------------------|
G|----------------------------------12b-------|
D|-14----------12-12-12-12-12-12h14-----14----|
A|----12-12h14-----------------------------12-|
E|--------------------------------------------|

E|----------12-------------|
B|-------------15p12-------|
G|-12-14b16----------14b16-|
D|-------------------------|
A|-------------------------|
E|-------------------------|

E|----12------------------12-------------------------|
B|-12----15p12---------12----15p12-14p12-13p12-13p12-|
G|-------------14b16---------------------------------|
D|---------------------------------------------------|
A|---------------------------------------------------|
E|---------------------------------------------------|

E|--------------------------|
B|--------------------------|
G|-15p14p12----12h14p12-----|
D|----------14----------14p-|
A|--------------------------|
E|--------------------------|

E|----------------------------------------------------------|
B|----------------------------------------------------------|
G|-------------------------------12h14p12-------------------|
D|p12h14p12h14p12----12----12-------------14-12h14p12----12-|
A|----------------14----14----14----------------------14----|
E|----------------------------------------------------------|

E|----------------------------------------|
B|----------------------------------------|
G|----------------------------------------|
D|-14---12-14-12--------------------------|
A|---------------14-13-12-10------------x-|
E|---------------------------12-10v-----x-|

E|----------------------------_______-------|
B|-15b17v---15-12-15p12h15p12-15p12---------|
G|---------------------------------15p14p13-|
D|------------------------------------------|
A|------------------------------------------|
E|------------------------------------------|

E|-------|-----------------|----|------------------12-15-b17vv-|
B|-12-15-|-b17-b16-b17-b16-|----|-b17___0vvv----15-------------|
G|-------|-----------------|-0/-|------------------------------|
D|-------|-----------------|-/0-|------------------------------|
A|-------|-----------------|----|------------------------------|
E|-------|-----------------|15 X|------------------------------|

E|-15---12------------------------------------------------|
B|----------15--12--________------------------------------|
G|------------------15p14p12----14--12--------------------|
D|---------------------------14---------14-12-------------|
A|--------------------------------------------14-------14-|
E|-----------------------------------------------12-12----|

E|--------------------------|
B|--------------------------|
G|--------------------------|
D|---------------------12---|
A|----10h12p10h12/14-----14-|
E|-12-----------------------|

E|---------------------------------------------------|
B|---------------------------_________---------------|
G|--------------------------------12---12vv--2b3__r2-|
D|---------------------12----12h14--14---------------|
A|-----10h12p10h12/14-----14-------------------------|
E|-12------------------------------------------------|

E|------------------|
B|------------------|
G|-0----------------|
D|----2-0-----------|
A|--------2-1-0-----|
E|--------------3-0-|

Интересные статьи

Собчак снова опозорила Волочкову
2011-12-04
Всем известно о давнем соперничестве между скандальной телеведущей Ксенией Собчак и балериной Анастасией Волочковой, которое видимо закончится не скоро.
> читать полностью

1 - Сайт содержит тексты песен, аккорды, табулатуры