Все песни

Все исполнители

Somebody To Love

Автор: Queen

Intro:
------
Piano:
N.C.
Caaaan.... anybody find me, somebody to love....

Piano: (no words:)  note  use Eb or G#/G
   G#              Eb     Fm    C#       Eb
E|---------------------------------------------|
B|-------------6------4-----1------------------|
G|------3---5------3--------1-----6-6------8-8-|
D|-6-6----------------------3-----6-6--6---8-8-|
A|--------------------------3-----4-4--4---6-6-|
E|-4-4------4------3--------1------------------|
                   Thumb

Verse 1:
--------
     G#		Eb	   Fm		G#   Bb		 Bb
Each day that I get up all tired, can barely stand on my knees,
	G#   Eb     Fm		Bb		         Eb
Take a look in the mirror, and cry, at what you`re doing to me
  G#		Bb	  Eb		    Eb
I spent all my years in believe in you, but
     Bb	  Eb
I just can`t get no release,
C#
Lord!
   G#			G#
Somebody (somebody), Somebody (somebody),
    G#	G#/G Fm   C# (pause)      G#   G#/G Fm C# Eb <-intro
Can any-body find me, somebody to love

Verse 2:
--------
I work hard, everyday of my life, I work till I ache my bones
At the end ( ...of the day), I take home,
my pride oh and salvation
I go down on my knees and praise the Lord,
till the tears run down
							from my eyes
Somebody (somebody), Somebody (somebody),
Can anybody find me, somebody to love

Break:  (electric guitar does chords, with lots of sliding!)
------
C#5///           C#5 ////	C#5       C#5        C#5
I work hard (..) everyday (..) I try and I try and I try,
     F#					    F#m
But everybody wants to put me down, they say, I`m going crazy,
Bb
 That`s right I want to rip my brains, I`ve got no common sense,
			Eb with bends (see below)
I`ve got nobody left to believe

                                  Solo:
				  -----
    Eb  and bends               Bass G#       G             F
E|------------------------------|------------------------------|
B|--11b--11-11b--11-11b--11-11b-|-9-11b(13)-b13-11-9--11p9-----|
G|------------------------------|---------------------------10-|
D|------------------------------|------------------------------|
A|------------------------------|------------------------------|
E|------------------------------|------------------------------|
      yeah! yeah! yeah! yeah!

        G#          Bb      Eb
E|--------------8---11p8----------------|
B|-------9--11b(13)-------11-9--11------|
G|--8h10---------------------------8--8-|
D|--------------------------------------|
A|--------------------------------------|
E|--------------------------------------|

           G#           G                F
E|------------------------------------------|
B|------9--11b(13)-11b(13)-11b(13)-11p9-----|
G|-8h10----------------------------------10-|
D|------------------------------------------|
A|------------------------------------------|
E|------------------------------------------|

       Bb               Eb
E|-----8---------------------|
B|-11b(13)--11p9h11----------|
G|------------------10b-10p8-|
D|---------------------------|
A|---------------------------|
E|---------------------------|

    FAST!
                  G#     Bb         Eb
E|--11b(13)r11-9--8h9h11-10h11h13--11h13--15h16h18-|
B|-------------------------------------------------|
G|-------------------------------------------------|
D|-------------------------------------------------|
A|-------------------------------------------------|
E|-------------------------------------------------|

    Eb              Bb         Eb     C#
E|------------------------------------|
B|------------------------------------|
G|-----------------3p1----------------|
D|------1--3p1----------3p1-----------|
A|---3----3-----3------------1h3p1----|
E|----------------------------------4-|

   G#			G#
Somebody (somebody), Somebody (somebody),
    G#	G#/G Fm   C# (pause)      G#
Can any-body find me, somebody to looooove

G#/G     Fm    C#     Eb
Can anybody, find me, someone to love

Verse 3:
--------

I feel I got no rythm, I just keep losing my beat
(you keep losing+losing)
I`m alright, I`m alright (he`s alright)
I`m gonna face it without fear
I just gotta get out of this prison cell, one day
I`m gonna be free Loord

Pause

N.C:
Find me somebody to love me
( -> say lots, guitar comes in with palm muted
G#)
    G  G#/G Fm   C#  (pause)
Can anybody find me, somebody tooooooo loooohohohove

Fading out:
-----------
G#   G#/G     Fm	C#         Eb
Can, anybody, find me, somebody to love   x lots

End

Chords:
-------

G#	466544
G#/G	366544  <- hard to play, play Eb if you want (either one)
Fm	133111
Eb	x68886
   or	3xx34x   <-use thumb in fact it`s Eb/G
C#	x46664
C#5	x466xx
F#	244322
F#m	244222

!!!!!!!!!!!!!!!!!!!!!!!!!!!!!!!!!!

Another version of guitar solo
E|-----------------------------------------------|
B|-----------------------------------------------|
G|-15b17----15b17__rp13h15p13----------13--15b17-|
D|---------------------------15----13------------|
A|-----------------------------------------------|
E|-----------------------------------------------|

E|----------------------------------|
B|-16-------------------------------|
G|----b17__rp13--15--------10/13-13-|
D|-------------------13-------------|
A|----------------------------------|
E|----------------------------------|

E|---------------------------------------------|
B|--------13---------13---------13-------------|
G|-15b17------15b17------15b17------17r15p13---|
D|------------------------------------------15-|
A|---------------------------------------------|
E|---------------------------------------------|

E|------------------------------------|
B|------------------------------------|
G|--15b17__rp1315___b17---------------|
D|----------------------15b_16-15p13v-|
A|------------------------------------|
E|------------------------------------|

E|-------------------------------------------|
B|-16b18----16--14--13-14-b16v__r14p13-15-16-|
G|-------------------------------------------|
D|-------------------------------------------|
A|-------------------------------------------|
E|-------------------------------------------|

E|-------------------15-16-18v-|
B|-b18__r16p14-16-18-----------|
G|-----------------------------|
D|-----------------------------|
A|-----------------------------|
E|-----------------------------|

E|------------------------------------------------|
B|--------------------------11-10-9-8-------------|
G|----8--10-12_r10p8-10--8------------10b11rp8--8-|
D|-8------------------------------------------10--|
A|------------------------------------------------|
E|------------------------------------------------|

E|-------------------------|
B|-------------------------|
G|--------10p8h10p8h10p8---|
D|-8h10h11-----------6h8p6-|
A|-------------------???---|
E|-------------------------|

Интересные статьи

Собчак снова опозорила Волочкову
2011-12-04
Всем известно о давнем соперничестве между скандальной телеведущей Ксенией Собчак и балериной Анастасией Волочковой, которое видимо закончится не скоро.
> читать полностью

1 - Сайт содержит тексты песен, аккорды, табулатуры