Все песни

Все исполнители

Scandal

Автор: Queen

E|-14b15-14-12-----12------------------------------------------|
B|--------------15-----------------7-7----------8-8-8-7b8_r7-7-|
G|--------------------14b16_r14-b9-----7b9__r-7----------------|
D|-------------------------------------------------------------|
A|-------------------------------------------------------------|
E|-------------------------------------------------------------|

E|-----------------------------10--------------------|
B|-8p7p5--------------8-10b_12---12_r10p8-10b12-10v--|
G|-------7-7b9---77----------------------------------|
D|---------------------------------------------------|
A|---------------------------------------------------|
E|---------------------------------------------------|

E|-------------12------151312------------------14---------|
B|---------13------13--------151312--------15----15--1517-|
G|-7/---12--12--12----------------1412--14--14----14------|
D|-----14------------------------------16-----------------|
A|--------------------------------------------------------|
E|--------------------------------------------------------|

E|171514----------19b20-|-19b20r1917--19----------|
B|------1715------------|-----------20--20b22vv---|
G|---------171614-------|-------------------------|
D|----------------------|-------------------------|
A|----------------------|-------------------------|
E|----------------------|-------------------------|

Интересные статьи

Собчак снова опозорила Волочкову
2011-12-04
Всем известно о давнем соперничестве между скандальной телеведущей Ксенией Собчак и балериной Анастасией Волочковой, которое видимо закончится не скоро.
> читать полностью

1 - Сайт содержит тексты песен, аккорды, табулатуры