Все песни

Все исполнители

Save Me

Автор: Queen

E|-----------------------------------------------|
B|-14b15----14b15r14p12------17b19__r17-15141715-|
G|---------------------14------------------------|
D|-----------------------------------------------|
A|-----------------------------------------------|
E|-----------------------------------------------|

E|-------14-17-14-15-14-15-14-------------------------19b21-|
B|----15----------------------15---19b21----b21_r19p17------|
G|-14-------------------------------------------------------|
D|----------------------------------------------------------|
A|----------------------------------------------------------|
E|----------------------------------------------------------|

E|--b21__b22__21r1917------------------------|
B|-------------------201917--17--------------|
G|-------------------------19--1916--1619----|
D|---------------------------------19--------|
A|----------------------------------------17-|
E|-------------------------------------------|

Интересные статьи

Собчак снова опозорила Волочкову
2011-12-04
Всем известно о давнем соперничестве между скандальной телеведущей Ксенией Собчак и балериной Анастасией Волочковой, которое видимо закончится не скоро.
> читать полностью

1 - Сайт содержит тексты песен, аккорды, табулатуры