Все песни

Все исполнители

Sail Away Sweet Sister (2 вариант)

Автор: Queen

piano plays something like this:
 E-|-7---7---7---7---7---7---7---7---7---7---7---7---7---7---5---5---7---7-----|
 B-|-7---7---7---7---7---7---7---7---7---7---7---7---7---7---7---7---8---8-----|
 G-|-7---7---7---7---7---7---7---7---7---7---7---7---7---7---6---6---7---7-----|
 D-|---9---9---9---9---9---9---9---9---9---9---9---9---9---9---4---4---9---9---|
 A-|---------------------------------------------------------------------------|
 E-|-----------------------------------------------------------------7---------|


 E-|------------------7---7-------|
 B-|-10-9-----3---2---7---7-------|
 G-|--9-9-----4---2---7---7-------|
 D-|-11-9-----5---4-----9---9-...-|
 A-|------------------------------|
 E-|-0--0-------------7-----------|

 clean guitar:
 E-|-------------------------2---------------|
 B-|-------------------------2---------------|
 G-|-4---4---4---4---4---4---2--4--4....-----|
 D-|-------------------------4---------------|
 A-|-----------------------------------------|
 E-|-----------------------------------------|


 overdriven guitar:
 (two guitars arr. for one.)
 E-|-------------------2--------------------------------------2----------------|
 B-|-------3---2---3---3---------3--------3---------5---------3----3--3---3-0--|
 G-|-------4---2---2---2----------2-------4----------4----2---2----2--2---4-0--|
 D-|-------4---4---0---0---4-4-----4----5---5-6-6-----6---0--------0--0--------|
 A-|-------2---0-----------5-5--------5-------7-7---------0--------0--0--------|
 E-|-3--2------------------2-2--------3-------4-4------------------------------|


 E-|-----0--------------------------2--------------------------------2---3-2---|
 B-|-----2---2-3-3-2-3---2--------3-3--------3--------3-----------3--3---3-3---|
 G-|-2---2---2-2-2-2-2---2--------2-2---------2-2-----4-------4---2----2-4-4---|
 D-|-2-------2-4-4-2-4---2------0-------4-4----4------5---6-6-6---0------5-5---|
 A-|-0-------0-0-0-0-0---0--------------5-5-------5---5---7-7-----0------------|
 E-|------------------------------------2-2-------3-------4-4------------------|

                              clean guitar
 E-|---------------------------------------------------2---------|
 B-|-----2-----3-------3-------------------------------2---------|
 G-|-2---2-----2---3---4-------4---4---4---4---4---4---2--.....--|
 D-|-2-2---2---0---4---4-------------------------------4---------|
 A-|-0-------------4---2-----------------------------------------|
 E-|---------------2---------------------------------------------|

 clean guitar
 E-|----------------------------2-----------------------|
 B-|----------------------------2-----------------------|
 G-|----4---4---4---4---4---4---2------4--4-.....-------|
 D-|----------------------------4-----------------------|
 A-|----------------------------------------------------|
 E-|----------------------------------------------------|

 acoustic guitar solo:
 E-|----9-10p9-----9--10p9-10--10vv--10p9-----9--10--12vv-|
 B-|-12--------12-------------------------12--------------|
 G-|------------------------------------------------------|
 D-|------------------------------------------------------|
 A-|------------------------------------------------------|
 E-|------------------------------------------------------|


 E-|-12r10--9-------------------12b14vvrp10-9-----------|-10-12-9-10----|
 B-|-----------12--10-9-10-9-------------------10--12---|------------12-|
 G-|-------------------------9vv------------------------|---------------|
 D-|----------------------------------------------------|---------------|
 A-|----------------------------------------------------|---------------|
 E-|----------------------------------------------------|---------------|


 E-|------------------2--2-2-2-2------2----------------------------2---3--3----|
 B-|------------------3--3-3-3-3------3-3-3------3-----------------3---3--3----|
 G-|---------4---2----2--2-2-2-2------2----------4-4-------4----2--2---4--4----|
 D-|-5---4---4---4-4--0--0-0-0-0--4-4-4------5---5---5-6-6-6-6--2--2---0--2----|
 A-|-5---4---2---4-4--------------5-5-5------5---------7-7------0---------0----|
 E-|-3---2------------------------2-2--------3---------4-4---------------------|


 E-|-----------------------------2---2-------2---------------------------------|
 B-|-2---2---2-2-3-3---3-2-------3---3-------3-3-----3-------------------------|
 G-|-2---2---2-2-2-2---2---4-2---2---2-------2---2-2-4---4-4------4------------|
 D-|-2---2---2-2-4-4---4---------0---0---4-4-4-------5--------6-6-6------------|
 A-|-0---0---0-0-0-0---0-----------------5-5-5-------5--------7-7--------------|
 E-|-------------------------------------2-2---------3--------4-4--------------|


 E-|-----2---3-2-------------2-|
 B-|-----3---3-3---2---2-----3-|
 G-|-2---2---4-4---2---2-----2-|
 D-|-2---2---5-5---2---2---0-0-|
 A-|-0-------------0-----------|
 E-|---------------------------|

 piano:
 E-|-------------------------7---7---7---7---9---9---10---10---10---10----|
 B-|-7---7---8---8--10--10---8---8---9---9--10--11---12---12---10---10----|
 G-|-7---7---7---7---7---7-----9---9---9---9---9---11---11---11---11---11-|
 D-|---7---7---7---7---7---7----------------------------------------------|
 A-|----------------------------------------------------------------------|
 E-|----------------------------------------------------------------------|

             >solo
 E-|-----------2-2-2-2-------------------------------2---3-3-------------------|
 B-|---------3-3-3-3-3-------3-----------------------3---3-3-------------------|
 G-|---------2-2-2-2-2---------2----4--------4---2---2---4-4-------------------|
 D-|---------0-0-0-0-0---4-4-----5--5----6-6-6---2---2---5-5-------------------|
 A-|---------0-----------5-5-----5--5----7-7-----0---0---0-0-------------------|
 E-|-41--1--------------2-2-----3--3----4-4-----------------------------------|


 E-|------------------------|
 B-|-2---2---2-3-3-3-3---2--|
 G-|-2---2---2-2-2-2-2---2--|
 D-|-2---2---2-4-4-4-4---2--|
 A-|-0---0---0-0-0-0-0---0--|
 E-|------------------------|


 E-|----2----------------------------2-2--3-2----------------------------------|
 B-|-3--3--------------3-------------3-3--3-3--2--2--2-2-----------2-----------|
 G-|-2--2-------2------4-------4-----2-2--4-4--2--2--2-2--3-----4--2-----------|
 D-|-0--0---4-4-4---5--5---6-6-6--2--2-2--5-5--2--2--2-2--4--4--4--2-----------|
 A-|--------5-5-----5--5---7-7----0--0-0-------0--0--0-0--5--4--2--0-----------|
 E-|--------2-2-----3------4-4-------------------------------2-----------------|


 E-|-2--2--------2--------------------2----3-3--3-3-3-3------------------------|
 B-|-3--3---------3------3------------2h3--3-3--3-3-3-3--2--2--2-3-3--3-2-3----|
 G-|-2--2----------2-----4------4--2--2----4-4--4-4-4-4--2--2--2-2-2--2-2-2----|
 D-|-0------4-4-------5--5--6-6-6--2--2----5-5--5-5-5-5--2--2--2-4-4--4-2-4-0--|
 A-|--------5-5-------5--5--7-7----0--0----0-0-----------0--0--0-0-0--0-0-0----|
 E-|--------2-2-------3-----4-4------------------------------------------------|

 E-|----2------------------------------2---3-2---------------------------------|
 B-|-3--3---------------------------2--3---3-3---2---2-------------------------|
 G-|-2--2------2------4--------4----2--2---4-4---2---2--4--4--4--4--4--4...----|
 D-|-0--0--4-4-4--5-5------6-6-6----2--2---5-5---2---2-------------------------|
 A-|-------5-5----5-----5--7-7---7--0--0---------0---0-------------------------|
 E-|-------2-2----3--------4-4-------------------------------------------------|

 solo:
 -----

 middle
 E-|---------------------------------------------------------------------------|
 B-|---------------------------------------------------------------------------|
 G-|---------------b11vvvr9p7-9---7---7-----7vvv-------------------------------|
 D-|-7----7-9---7---------------9---------9------------------------------------|
 A-|----9-----9----------------------------------------------------------------|
 E-|---------------------------------------------------------------------------|

 middle
 E-|---------------------------------------------------------------------------|
 B-|--------10b12--10---8--7---------------------------------------------------|
 G-|---------------------------9-7----9b11-b11-b11-b11-9-----------------------|
 D-|-9-8-7-------------------------7-------------------------------------------|
 A-|-------------------------------------------------------9-7-5---------------|
 E-|---------------------------------------------------------------------------|


 left
 E-|------------------------------------7---------------7--7-------------------|
 B-|--------------------7/8---------------10-8-7-8--10-------------------------|
 G-|---------7--------------------7--------------------------------------------|
 D-|-----7/9----------------9--------------------------------------------------|
 A-|---------------------------------------------------------------------------|
 E-|---------------------------------------------------------------------------|
   |
 right
 E-|---------------------------------------------------------------------------|
 B-|---------------------------------------------------------------------------|
 G-|--------------------6/7-------------7---7-----6---7--7--7------------------|
 D-|-----7---------------------6--6---6-------9-7--------------7--7------------|
 A-|-7/9-------------------------------------------------------------5---------|
 E-|---------------------------------------------------------------------------|
   |
 middle
 E-|---------------------------------------------------------------------------|
 B-|----------------10-10/12---------------------9-----------------------------|
 G-|-----------7/11-----------9b11r9-7---7---7-7----------------11r9---11r9767-|
 D-|-----------------------------------9---9---------7-7-7/9--------10---------|
 A-|---------------------------------------------------------10----------------|
 E-|---------------------------------------------------------------------------|



 /  left
 |  E-|-------------------|
 |  B-|-7--7--10--10------|
 |  G-|-------------------|
 |  D-|-------------------|
 |  A-|-------------------|
 |  E-|-------------------|
 |
 |  right
 |  E-|-------------------|
 |  B-|b14-15-17-19---19-|
 /  G-|---------------19-|
   D-|-------------------|
 |  A-|-------------------|
 |  E-|-------------------|
 |
 | middle
 |  E-|-------------------|
 |  B-|----------7--------|
 |  G-|-6--7--9-----------|
 |  D-|-------------------|
 |  A-|-------------------|
   E-|-------------------|
 piano plays something like this:
 E-|-7---7---7---7---7---7---7---7---7---7---7---7---7---7---5---5---7---7-----|
 B-|-7---7---7---7---7---7---7---7---7---7---7---7---7---7---7---7---8---8-----|
 G-|-7---7---7---7---7---7---7---7---7---7---7---7---7---7---6---6---7---7-----|
 D-|---9---9---9---9---9---9---9---9---9---9---9---9---9---9---4---4---9---9---|
 A-|---------------------------------------------------------------------------|
 E-|-----------------------------------------------------------------7---------|


 E-|------------------7---7-------|
 B-|-10-9-----3---2---7---7-------|
 G-|--9-9-----4---2---7---7-------|
 D-|-11-9-----5---4-----9---9-...-|
 A-|------------------------------|
 E-|-0--0-------------7-----------|

 clean guitar:
 E-|-------------------------2---------------|
 B-|-------------------------2---------------|
 G-|-4---4---4---4---4---4---2--4--4....-----|
 D-|-------------------------4---------------|
 A-|-----------------------------------------|
 E-|-----------------------------------------|


 overdriven guitar:
 (two guitars arr. for one.)
 E-|-------------------2--------------------------------------2----------------|
 B-|-------3---2---3---3---------3--------3---------5---------3----3--3---3-0--|
 G-|-------4---2---2---2----------2-------4----------4----2---2----2--2---4-0--|
 D-|-------4---4---0---0---4-4-----4----5---5-6-6-----6---0--------0--0--------|
 A-|-------2---0-----------5-5--------5-------7-7---------0--------0--0--------|
 E-|-3--2------------------2-2--------3-------4-4------------------------------|


 E-|-----0--------------------------2--------------------------------2---3-2---|
 B-|-----2---2-3-3-2-3---2--------3-3--------3--------3-----------3--3---3-3---|
 G-|-2---2---2-2-2-2-2---2--------2-2---------2-2-----4-------4---2----2-4-4---|
 D-|-2-------2-4-4-2-4---2------0-------4-4----4------5---6-6-6---0------5-5---|
 A-|-0-------0-0-0-0-0---0--------------5-5-------5---5---7-7-----0------------|
 E-|------------------------------------2-2-------3-------4-4------------------|

                              clean guitar
 E-|---------------------------------------------------2---------|
 B-|-----2-----3-------3-------------------------------2---------|
 G-|-2---2-----2---3---4-------4---4---4---4---4---4---2--.....--|
 D-|-2-2---2---0---4---4-------------------------------4---------|
 A-|-0-------------4---2-----------------------------------------|
 E-|---------------2---------------------------------------------|

 clean guitar
 E-|----------------------------2-----------------------|
 B-|----------------------------2-----------------------|
 G-|----4---4---4---4---4---4---2------4--4-.....-------|
 D-|----------------------------4-----------------------|
 A-|----------------------------------------------------|
 E-|----------------------------------------------------|

 acoustic guitar solo:
 E-|----9-10p9-----9--10p9-10--10vv--10p9-----9--10--12vv-|
 B-|-12--------12-------------------------12--------------|
 G-|------------------------------------------------------|
 D-|------------------------------------------------------|
 A-|------------------------------------------------------|
 E-|------------------------------------------------------|


 E-|-12r10--9-------------------12b14vvrp10-9-----------|-10-12-9-10----|
 B-|-----------12--10-9-10-9-------------------10--12---|------------12-|
 G-|-------------------------9vv------------------------|---------------|
 D-|----------------------------------------------------|---------------|
 A-|----------------------------------------------------|---------------|
 E-|----------------------------------------------------|---------------|


 E-|------------------2--2-2-2-2------2----------------------------2---3--3----|
 B-|------------------3--3-3-3-3------3-3-3------3-----------------3---3--3----|
 G-|---------4---2----2--2-2-2-2------2----------4-4-------4----2--2---4--4----|
 D-|-5---4---4---4-4--0--0-0-0-0--4-4-4------5---5---5-6-6-6-6--2--2---0--2----|
 A-|-5---4---2---4-4--------------5-5-5------5---------7-7------0---------0----|
 E-|-3---2------------------------2-2--------3---------4-4---------------------|


 E-|-----------------------------2---2-------2---------------------------------|
 B-|-2---2---2-2-3-3---3-2-------3---3-------3-3-----3-------------------------|
 G-|-2---2---2-2-2-2---2---4-2---2---2-------2---2-2-4---4-4------4------------|
 D-|-2---2---2-2-4-4---4---------0---0---4-4-4-------5--------6-6-6------------|
 A-|-0---0---0-0-0-0---0-----------------5-5-5-------5--------7-7--------------|
 E-|-------------------------------------2-2---------3--------4-4--------------|


 E-|-----2---3-2-------------2-|
 B-|-----3---3-3---2---2-----3-|
 G-|-2---2---4-4---2---2-----2-|
 D-|-2---2---5-5---2---2---0-0-|
 A-|-0-------------0-----------|
 E-|---------------------------|

 piano:
 E-|-------------------------7---7---7---7---9---9---10---10---10---10----|
 B-|-7---7---8---8--10--10---8---8---9---9--10--11---12---12---10---10----|
 G-|-7---7---7---7---7---7-----9---9---9---9---9---11---11---11---11---11-|
 D-|---7---7---7---7---7---7----------------------------------------------|
 A-|----------------------------------------------------------------------|
 E-|----------------------------------------------------------------------|

             >solo
 E-|-----------2-2-2-2-------------------------------2---3-3-------------------|
 B-|---------3-3-3-3-3-------3-----------------------3---3-3-------------------|
 G-|---------2-2-2-2-2---------2----4--------4---2---2---4-4-------------------|
 D-|---------0-0-0-0-0---4-4-----5--5----6-6-6---2---2---5-5-------------------|
 A-|---------0-----------5-5-----5--5----7-7-----0---0---0-0-------------------|
 E-|-41--1--------------2-2-----3--3----4-4-----------------------------------|


 E-|------------------------|
 B-|-2---2---2-3-3-3-3---2--|
 G-|-2---2---2-2-2-2-2---2--|
 D-|-2---2---2-4-4-4-4---2--|
 A-|-0---0---0-0-0-0-0---0--|
 E-|------------------------|


 E-|----2----------------------------2-2--3-2----------------------------------|
 B-|-3--3--------------3-------------3-3--3-3--2--2--2-2-----------2-----------|
 G-|-2--2-------2------4-------4-----2-2--4-4--2--2--2-2--3-----4--2-----------|
 D-|-0--0---4-4-4---5--5---6-6-6--2--2-2--5-5--2--2--2-2--4--4--4--2-----------|
 A-|--------5-5-----5--5---7-7----0--0-0-------0--0--0-0--5--4--2--0-----------|
 E-|--------2-2-----3------4-4-------------------------------2-----------------|


 E-|-2--2--------2--------------------2----3-3--3-3-3-3------------------------|
 B-|-3--3---------3------3------------2h3--3-3--3-3-3-3--2--2--2-3-3--3-2-3----|
 G-|-2--2----------2-----4------4--2--2----4-4--4-4-4-4--2--2--2-2-2--2-2-2----|
 D-|-0------4-4-------5--5--6-6-6--2--2----5-5--5-5-5-5--2--2--2-4-4--4-2-4-0--|
 A-|--------5-5-------5--5--7-7----0--0----0-0-----------0--0--0-0-0--0-0-0----|
 E-|--------2-2-------3-----4-4------------------------------------------------|

 E-|----2------------------------------2---3-2---------------------------------|
 B-|-3--3---------------------------2--3---3-3---2---2-------------------------|
 G-|-2--2------2------4--------4----2--2---4-4---2---2--4--4--4--4--4--4...----|
 D-|-0--0--4-4-4--5-5------6-6-6----2--2---5-5---2---2-------------------------|
 A-|-------5-5----5-----5--7-7---7--0--0---------0---0-------------------------|
 E-|-------2-2----3--------4-4-------------------------------------------------|

 solo:
 -----

 middle
 E-|---------------------------------------------------------------------------|
 B-|---------------------------------------------------------------------------|
 G-|---------------b11vvvr9p7-9---7---7-----7vvv-------------------------------|
 D-|-7----7-9---7---------------9---------9------------------------------------|
 A-|----9-----9----------------------------------------------------------------|
 E-|---------------------------------------------------------------------------|

 middle
 E-|---------------------------------------------------------------------------|
 B-|--------10b12--10---8--7---------------------------------------------------|
 G-|---------------------------9-7----9b11-b11-b11-b11-9-----------------------|
 D-|-9-8-7-------------------------7-------------------------------------------|
 A-|-------------------------------------------------------9-7-5---------------|
 E-|---------------------------------------------------------------------------|


 left
 E-|------------------------------------7---------------7--7-------------------|
 B-|--------------------7/8---------------10-8-7-8--10-------------------------|
 G-|---------7--------------------7--------------------------------------------|
 D-|-----7/9----------------9--------------------------------------------------|
 A-|---------------------------------------------------------------------------|
 E-|---------------------------------------------------------------------------|
   |
 right
 E-|---------------------------------------------------------------------------|
 B-|---------------------------------------------------------------------------|
 G-|--------------------6/7-------------7---7-----6---7--7--7------------------|
 D-|-----7---------------------6--6---6-------9-7--------------7--7------------|
 A-|-7/9-------------------------------------------------------------5---------|
 E-|---------------------------------------------------------------------------|
   |
 middle
 E-|---------------------------------------------------------------------------|
 B-|----------------10-10/12---------------------9-----------------------------|
 G-|-----------7/11-----------9b11r9-7---7---7-7----------------11r9---11r9767-|
 D-|-----------------------------------9---9---------7-7-7/9--------10---------|
 A-|---------------------------------------------------------10----------------|
 E-|---------------------------------------------------------------------------|



 /  left
 |  E-|-------------------|
 |  B-|-7--7--10--10------|
 |  G-|-------------------|
 |  D-|-------------------|
 |  A-|-------------------|
 |  E-|-------------------|
 |
 |  right
 |  E-|-------------------|
 |  B-|b14-15-17-19---19-|
 /  G-|---------------19-|
   D-|-------------------|
 |  A-|-------------------|
 |  E-|-------------------|
 |
 | middle
 |  E-|-------------------|
 |  B-|----------7--------|
 |  G-|-6--7--9-----------|
 |  D-|-------------------|
 |  A-|-------------------|
   E-|-------------------|
 piano plays something like this:
 E-|-7---7---7---7---7---7---7---7---7---7---7---7---7---7---5---5---7---7-----|
 B-|-7---7---7---7---7---7---7---7---7---7---7---7---7---7---7---7---8---8-----|
 G-|-7---7---7---7---7---7---7---7---7---7---7---7---7---7---6---6---7---7-----|
 D-|---9---9---9---9---9---9---9---9---9---9---9---9---9---9---4---4---9---9---|
 A-|---------------------------------------------------------------------------|
 E-|-----------------------------------------------------------------7---------|


 E-|------------------7---7-------|
 B-|-10-9-----3---2---7---7-------|
 G-|--9-9-----4---2---7---7-------|
 D-|-11-9-----5---4-----9---9-...-|
 A-|------------------------------|
 E-|-0--0-------------7-----------|

 clean guitar:
 E-|-------------------------2---------------|
 B-|-------------------------2---------------|
 G-|-4---4---4---4---4---4---2--4--4....-----|
 D-|-------------------------4---------------|
 A-|-----------------------------------------|
 E-|-----------------------------------------|


 overdriven guitar:
 (two guitars arr. for one.)
 E-|-------------------2--------------------------------------2----------------|
 B-|-------3---2---3---3---------3--------3---------5---------3----3--3---3-0--|
 G-|-------4---2---2---2----------2-------4----------4----2---2----2--2---4-0--|
 D-|-------4---4---0---0---4-4-----4----5---5-6-6-----6---0--------0--0--------|
 A-|-------2---0-----------5-5--------5-------7-7---------0--------0--0--------|
 E-|-3--2------------------2-2--------3-------4-4------------------------------|


 E-|-----0--------------------------2--------------------------------2---3-2---|
 B-|-----2---2-3-3-2-3---2--------3-3--------3--------3-----------3--3---3-3---|
 G-|-2---2---2-2-2-2-2---2--------2-2---------2-2-----4-------4---2----2-4-4---|
 D-|-2-------2-4-4-2-4---2------0-------4-4----4------5---6-6-6---0------5-5---|
 A-|-0-------0-0-0-0-0---0--------------5-5-------5---5---7-7-----0------------|
 E-|------------------------------------2-2-------3-------4-4------------------|

                              clean guitar
 E-|---------------------------------------------------2---------|
 B-|-----2-----3-------3-------------------------------2---------|
 G-|-2---2-----2---3---4-------4---4---4---4---4---4---2--.....--|
 D-|-2-2---2---0---4---4-------------------------------4---------|
 A-|-0-------------4---2-----------------------------------------|
 E-|---------------2---------------------------------------------|

 clean guitar
 E-|----------------------------2-----------------------|
 B-|----------------------------2-----------------------|
 G-|----4---4---4---4---4---4---2------4--4-.....-------|
 D-|----------------------------4-----------------------|
 A-|----------------------------------------------------|
 E-|----------------------------------------------------|

 acoustic guitar solo:
 E-|----9-10p9-----9--10p9-10--10vv--10p9-----9--10--12vv-|
 B-|-12--------12-------------------------12--------------|
 G-|------------------------------------------------------|
 D-|------------------------------------------------------|
 A-|------------------------------------------------------|
 E-|------------------------------------------------------|


 E-|-12r10--9-------------------12b14vvrp10-9-----------|-10-12-9-10----|
 B-|-----------12--10-9-10-9-------------------10--12---|------------12-|
 G-|-------------------------9vv------------------------|---------------|
 D-|----------------------------------------------------|---------------|
 A-|----------------------------------------------------|---------------|
 E-|----------------------------------------------------|---------------|


 E-|------------------2--2-2-2-2------2----------------------------2---3--3----|
 B-|------------------3--3-3-3-3------3-3-3------3-----------------3---3--3----|
 G-|---------4---2----2--2-2-2-2------2----------4-4-------4----2--2---4--4----|
 D-|-5---4---4---4-4--0--0-0-0-0--4-4-4------5---5---5-6-6-6-6--2--2---0--2----|
 A-|-5---4---2---4-4--------------5-5-5------5---------7-7------0---------0----|
 E-|-3---2------------------------2-2--------3---------4-4---------------------|


 E-|-----------------------------2---2-------2---------------------------------|
 B-|-2---2---2-2-3-3---3-2-------3---3-------3-3-----3-------------------------|
 G-|-2---2---2-2-2-2---2---4-2---2---2-------2---2-2-4---4-4------4------------|
 D-|-2---2---2-2-4-4---4---------0---0---4-4-4-------5--------6-6-6------------|
 A-|-0---0---0-0-0-0---0-----------------5-5-5-------5--------7-7--------------|
 E-|-------------------------------------2-2---------3--------4-4--------------|


 E-|-----2---3-2-------------2-|
 B-|-----3---3-3---2---2-----3-|
 G-|-2---2---4-4---2---2-----2-|
 D-|-2---2---5-5---2---2---0-0-|
 A-|-0-------------0-----------|
 E-|---------------------------|

 piano:
 E-|-------------------------7---7---7---7---9---9---10---10---10---10----|
 B-|-7---7---8---8--10--10---8---8---9---9--10--11---12---12---10---10----|
 G-|-7---7---7---7---7---7-----9---9---9---9---9---11---11---11---11---11-|
 D-|---7---7---7---7---7---7----------------------------------------------|
 A-|----------------------------------------------------------------------|
 E-|----------------------------------------------------------------------|

             >solo
 E-|-----------2-2-2-2-------------------------------2---3-3-------------------|
 B-|---------3-3-3-3-3-------3-----------------------3---3-3-------------------|
 G-|---------2-2-2-2-2---------2----4--------4---2---2---4-4-------------------|
 D-|---------0-0-0-0-0---4-4-----5--5----6-6-6---2---2---5-5-------------------|
 A-|---------0-----------5-5-----5--5----7-7-----0---0---0-0-------------------|
 E-|-41--1--------------2-2-----3--3----4-4-----------------------------------|


 E-|------------------------|
 B-|-2---2---2-3-3-3-3---2--|
 G-|-2---2---2-2-2-2-2---2--|
 D-|-2---2---2-4-4-4-4---2--|
 A-|-0---0---0-0-0-0-0---0--|
 E-|------------------------|


 E-|----2----------------------------2-2--3-2----------------------------------|
 B-|-3--3--------------3-------------3-3--3-3--2--2--2-2-----------2-----------|
 G-|-2--2-------2------4-------4-----2-2--4-4--2--2--2-2--3-----4--2-----------|
 D-|-0--0---4-4-4---5--5---6-6-6--2--2-2--5-5--2--2--2-2--4--4--4--2-----------|
 A-|--------5-5-----5--5---7-7----0--0-0-------0--0--0-0--5--4--2--0-----------|
 E-|--------2-2-----3------4-4-------------------------------2-----------------|


 E-|-2--2--------2--------------------2----3-3--3-3-3-3------------------------|
 B-|-3--3---------3------3------------2h3--3-3--3-3-3-3--2--2--2-3-3--3-2-3----|
 G-|-2--2----------2-----4------4--2--2----4-4--4-4-4-4--2--2--2-2-2--2-2-2----|
 D-|-0------4-4-------5--5--6-6-6--2--2----5-5--5-5-5-5--2--2--2-4-4--4-2-4-0--|
 A-|--------5-5-------5--5--7-7----0--0----0-0-----------0--0--0-0-0--0-0-0----|
 E-|--------2-2-------3-----4-4------------------------------------------------|

 E-|----2------------------------------2---3-2---------------------------------|
 B-|-3--3---------------------------2--3---3-3---2---2-------------------------|
 G-|-2--2------2------4--------4----2--2---4-4---2---2--4--4--4--4--4--4...----|
 D-|-0--0--4-4-4--5-5------6-6-6----2--2---5-5---2---2-------------------------|
 A-|-------5-5----5-----5--7-7---7--0--0---------0---0-------------------------|
 E-|-------2-2----3--------4-4-------------------------------------------------|

 solo:
 -----

 middle
 E-|---------------------------------------------------------------------------|
 B-|---------------------------------------------------------------------------|
 G-|---------------b11vvvr9p7-9---7---7-----7vvv-------------------------------|
 D-|-7----7-9---7---------------9---------9------------------------------------|
 A-|----9-----9----------------------------------------------------------------|
 E-|---------------------------------------------------------------------------|

 middle
 E-|---------------------------------------------------------------------------|
 B-|--------10b12--10---8--7---------------------------------------------------|
 G-|---------------------------9-7----9b11-b11-b11-b11-9-----------------------|
 D-|-9-8-7-------------------------7-------------------------------------------|
 A-|-------------------------------------------------------9-7-5---------------|
 E-|---------------------------------------------------------------------------|


 left
 E-|------------------------------------7---------------7--7-------------------|
 B-|--------------------7/8---------------10-8-7-8--10-------------------------|
 G-|---------7--------------------7--------------------------------------------|
 D-|-----7/9----------------9--------------------------------------------------|
 A-|---------------------------------------------------------------------------|
 E-|---------------------------------------------------------------------------|
   |
 right
 E-|---------------------------------------------------------------------------|
 B-|---------------------------------------------------------------------------|
 G-|--------------------6/7-------------7---7-----6---7--7--7------------------|
 D-|-----7---------------------6--6---6-------9-7--------------7--7------------|
 A-|-7/9-------------------------------------------------------------5---------|
 E-|---------------------------------------------------------------------------|
   |
 middle
 E-|---------------------------------------------------------------------------|
 B-|----------------10-10/12---------------------9-----------------------------|
 G-|-----------7/11-----------9b11r9-7---7---7-7----------------11r9---11r9767-|
 D-|-----------------------------------9---9---------7-7-7/9--------10---------|
 A-|---------------------------------------------------------10----------------|
 E-|---------------------------------------------------------------------------|

 /  left
 |  E-|-------------------|
 |  B-|-7--7--10--10------|
 |  G-|-------------------|
 |  D-|-------------------|
 |  A-|-------------------|
 |  E-|-------------------|
 |
 |  right
 |  E-|-------------------|
 |  B-|b14-15-17-19---19-|
 /  G-|---------------19-|
   D-|-------------------|
 |  A-|-------------------|
 |  E-|-------------------|
 |
 | middle
 |  E-|-------------------|
 |  B-|----------7--------|
 |  G-|-6--7--9-----------|
 |  D-|-------------------|
 |  A-|-------------------|
   E-|-------------------|

Интересные статьи

Собчак снова опозорила Волочкову
2011-12-04
Всем известно о давнем соперничестве между скандальной телеведущей Ксенией Собчак и балериной Анастасией Волочковой, которое видимо закончится не скоро.
> читать полностью

1 - Сайт содержит тексты песен, аккорды, табулатуры