Все песни

Все исполнители

Rain Must Fall

Автор: Queen

E|-------------------------------------|
B|..-----22---22-----------22---22-----|
G|--21b23--b23--b23--r21b23--b23--b23--|
D|-------------------------------------|
A|-------------------------------------|
E|-------------------------------------|

E|----------------------------------------|
B|--------22p19-----22p19-----22---22-----|
G|-r21-b23-----21b23-----21b23--b23--b23--|
D|----------------------------------------|
A|----------------------------------------|
E|----------------------------------------|

E|-22b23---22-20-18----------------------------------|
B|------------------21-20-18-------------------------|
G|---------------------------20-19-17----------------|
D|------------------------------------20-18-17-------|
A|---------------------------------------------20-18-|
E|---------------------------------------------------|

E|----------------------------------|
B|-/15--t20p17--t20b22p19r_17-17__--|
G|----------------------------------|
D|----------------------------------|
A|----------------------------------|
E|----------------------------------|

E|--------------------------------------|
B|-----15--t20p17--t20b22p19r_17t20p17v-|
G|-16-----------------------------------|
D|--------------------------------------|
A|--------------------------------------|
E|--------------------------------------|

E|---------------|
B|-15-17b19_t20p-|
G|---------------|
D|---------------|
A|---------------|
E|---------------|

E|--------------------------------------------------|
B|-(b19)_t20__p19r17b19_r17p1517b19_t22-pb19_r17p15-|
G|--------------------------------------------------|
D|--------------------------------------------------|
A|--------------------------------------------------|
E|--------------------------------------------------|

E|----------------------------------|-------------|
B|-17b19t20---17b19t22---17b19t20---|-17b19__t20--|
G|----------------------------------|-------------|
D|----------------------------------|-------------|
A|----------------------------------|-------------|
E|----------------------------------|-------------|

E|------------------------------------------------------|
B|-17b19t20p(b19)t20p(b19)t20p(b19)t20p(b19)t20p(b19)t20|
G|------------------------------------------------------|
D|------------------------------------------------------|
A|------------------------------------------------------|
E|------------------------------------------------------|

E|-1417-------------------------------------------------|
B|-----t20p17t20p16t20p15t20p16t20p17t20p(b19)t20......-|
G|------------------------------------------------------|
D|------------------------------------------------------|
A|------------------------------------------------------|
E|------------------------------------------------------|

Интересные статьи

Собчак снова опозорила Волочкову
2011-12-04
Всем известно о давнем соперничестве между скандальной телеведущей Ксенией Собчак и балериной Анастасией Волочковой, которое видимо закончится не скоро.
> читать полностью

1 - Сайт содержит тексты песен, аккорды, табулатуры