Все песни

Все исполнители

Procession

Автор: Queen

Channel 1
E|---5-6-6-|
B|-3-7-8-8-|
G|-3-7-7-7-|
D|---------|
A|---------|
E|---------|

E|-3-5-6-5-6-5-3---3-------5---1---1---1---1---3-0-1-0---------|
B|-5-----6-6---6-5-3-------7---3-2-3---3-2-3---3-1-1---3---1-3-|
G|-5-----5-7---5---5-3-----7---2---2---3-2-3---4-0-2---5-4-2-0-|
D|---------------------7-5-----------------------------5-3-2-0-|
A|-------------------------------------------------------------|
E|-------------------------------------------------------------|

   Channel 2        fade in/fade out volume control
E|-------------------------------------------------------------|
B|-------------------------------------------------------------|
G|-------------------------------------------------------------|
D|-------------------------0---------0-------------------------|
A|---------------------------0---------1-------2-3---------0---|
D|-----------------------------0-------------------3---5-----5-|

    Channel 2
E|--8-10-10-10-----|-12-----13----15-15---|-12-14-15-15-|
B|-8-8-10-12-12----|-15-13--15----17-17---|-13-15-17-17-|
G|-7-9-11-12-12----|-12-----17-16-17-17---|-14-16-17-17-|
D|-----------------|----------------------|-------------|
A|-----------------|----------------------|-------------|
E|-----------------|----------------------|-------------|

   Channel 1       fade in/fade out volume control
E|----------|---------------------|-3------------------|-0-----|
B|----------|-3-3-3-1-------------|-3-5-3-1------------|-3-1-1-|
G|----------|-2-4-0-0-------------|-4-5-4-2------------|-4-2-2-|
D|----------|-4-5-3-2-------------|-5-5-5-2------------|---2-2-|
A|----------|-5-5-5-3-------------|---3-2-0------------|---0-0-|
D|----------|---------------------|--------------------|-2-----|

    Channel 2
E|-2-14-15-15-17-19-19-20-22-22--|
B|-13-15-17-17-19-20-20-22-24-22-|
G|-12-14-16-17-19-21-19-21-23-23-|
D|-------------------------------|
A|-------------------------------|
E|-------------------------------|

    Channel 1         fade in/fade out volume control
E|-------------------------------|
B|-------------------------------|
G|-------------------12-12-12-11-|
D|-------------------12-12-12-12-|
A|-0-----------------14-10-10-12-|
D|-----------2--------5--------0-|

Интересные статьи

Собчак снова опозорила Волочкову
2011-12-04
Всем известно о давнем соперничестве между скандальной телеведущей Ксенией Собчак и балериной Анастасией Волочковой, которое видимо закончится не скоро.
> читать полностью

1 - Сайт содержит тексты песен, аккорды, табулатуры