Все песни

Все исполнители

Party

Автор: Queen

E|-10p9p7-9p7----7---------7------|
B|------------10---10p7-10---10p7-|
G|--------------------------------|
D|--------------------------------|
A|--------------------------------|
E|--------------------------------|

E|-------------------------------------|
B|-------------------------------------|
G|--------11-12r11p9-11p9----9----9----|
D|-----13-----------------11---11---11-|
A|-/14---------------------------------|
E|-------------------------------------|

Интересные статьи

Собчак снова опозорила Волочкову
2011-12-04
Всем известно о давнем соперничестве между скандальной телеведущей Ксенией Собчак и балериной Анастасией Волочковой, которое видимо закончится не скоро.
> читать полностью

1 - Сайт содержит тексты песен, аккорды, табулатуры