Все песни

Все исполнители

Ogre Battle

Автор: Queen

played backwards
E|---------------------------------------------------|
B|---------------------------------------------------|
G|---2---2---2---2-----------------------------------|
D|---2---2---2---2---2-3-5-5-0-2-3-3-----------------|
A|-*-0---0---0---0-------------------2-3-5-5-0-2-3-3-|
E|---------------------------------------------------|

E|---------|--|---------|--|-----------------------------|--|--|
B|---------|--|---------|--|-----------------------------|--|--|
G|---------|0/|---------|0/|-----------------------------|0/|--|
D|---------|/0|---------|/0|---2---2-2---2-2---2-2---2-2-|/0|--|
A|---------|--|---------|--|---0---0-0---0-0---0-0---0-0-|--|--|
E|-0-3-5-5-|3X|-0-2-3-3-|3X|-0---3-----3-----3-----3-----|--|0-|

 backwars off
E|-----------------------------|---|---------|---|---------|---|
B|-----------------------------|---|---------|---|---------|---|
G|-----------------------------|0/-|---------|0/-|---------|0/-|
D|-2-2---2-2---2-2---2-2---2---|/0-|---------|/0-|---------|/0-|
A|-0-0---0-0---0-0---0-0---0---|---|---------|---|---------|---|
E|-----3-----3-----3-----3---0-|---|-3-3-2-0-|3X |-5-5-3-0-|3X |

E|-------------------------------------------------2-|
B|-------------------------------------------------3-|
G|---------------------------------2---2---2---2---2-|
D|-----------------3-3-2-0-5-5-3-2-2---2---2---2---0-|
A|-3-3-2-0-5-5-3-2-----------------0---0---0---0-----|
E|---------------------------------------------------|

E|-------------------------------------|----------------|-----|
B|-------------------------------------|----------------|-----|
G|-------------------------------------|----------------|-----|
D|-5-------------------------------2---|-----5-------2--|-----|
A|-5----5----------9---------------2---|-----5-------2--|-----|
E|-3----2v---x-x-0-7---*-x-x---x-x-0---|-x-x-3-----x-0--| C D-|

E|------------------------2-------------------|
B|----------3-------------3-------------------|
G|----------2-------------2-----7-------------|
D|-5------------------4---------7-----5-------|
A|-5------------0-0-2---------5-5-----5-------|
E|-3----2v----------------------------3-----0-|

E|-----------------2-|-------------------|----|
B|-----------------3-|-------------------|----|
G|-----------------2-|-------------------|-0/-|
D|-5---------------0-|---------------5h7-|-/0-|
A|---3-2-0-------0---|-3-2-0-3p0-5p0-----|----|
E|---------3-2-0-----|-------------------|----|

E|--------------------------------------2-|
B|--------------------------------------3-|
G|--------------------------------------2-|
D|---------------5h7---5----------------0-|
A|-3-2-0-3p0-5p0-----------7---5--3--2----|
E|----------------------------------------|

E|-----------------------------------|
B|-----------------------------------|
G|-----------------------------------|
D|-5---------------------------------|
A|-5----5-----------9----------------|
E|-3----2---x-x-x-x-7---x---x-x-0tr--| G E C D

 ....

E|--------------------|----|-----------------------------------|
B|--------------------|----|-----------------------------------|
G|-2---22---22---22---|-0/-|-2---22---22---22-204----4----4...-|
D|-2---22---22---22---|-/0-|-2---22---22---22---4----4----4----|
A|-0---00---00---00---|----|-0---00---00---00---2---------2----|
E|-----------------420| 2X |--------------------------0200-----|

Интересные статьи

Собчак снова опозорила Волочкову
2011-12-04
Всем известно о давнем соперничестве между скандальной телеведущей Ксенией Собчак и балериной Анастасией Волочковой, которое видимо закончится не скоро.
> читать полностью

1 - Сайт содержит тексты песен, аккорды, табулатуры