Все песни

Все исполнители

Now I`m Here

Автор: Queen

The muted bit is D as follows...

E|-----------------------------------|
B|-3-3-3-3...3---------------------3-|
G|-2-2-2-2...2-2...2-2...2-2...2-2-2-|
D|-0-0-0-0...0-0...0-0...0-0...0-0-0-|
A|-------------3...3-2...2-1...1-3---|
E|-----------------------------------|

 Then..

E|-------------------------------|
B|-2---3---2---3---4---5---4---5-|
G|-2---2---2---2---4---4---4---4-|
D|-2---2---2---2---4---4---4---4-|
A|-0---0---0---0---2---2---2---2-|
E|-------------------------------|
  I`m just a...

 Then the main riff.

E|--------------------------------------|
B|------------------------3-3-----------|
G|------------------------2-2-2---------|
D|---------2---4--2-----------2--4-4----|
A|-------------2--0--------------2-2-4--|
E|-0---3-4---0------3-4-0------------2--|

E|------------------------------------|
B|--------------9-9---9-9---9-----7-5-|
G|--------------9-9---9-9---9-----7-6-|
D|-------0-2----9-9---9-9---9-----7-7-|
A|-0-1-2--------7-7---7-7---7---------|
E|-----------0------0-----0---0-0-----|

Интересные статьи

Собчак снова опозорила Волочкову
2011-12-04
Всем известно о давнем соперничестве между скандальной телеведущей Ксенией Собчак и балериной Анастасией Волочковой, которое видимо закончится не скоро.
> читать полностью

1 - Сайт содержит тексты песен, аккорды, табулатуры