Все песни

Все исполнители

Mustapha

Автор: Queen

two short solos
E|-------------------------------|
B|-------------------------------|
G|-------------------------------|
D|-----------9-10-12-13-15p13----|
A|-7-8-10-11-----------------14--|
E|-------------------------------|

E|-------------------------------------------------|
B|---------13-14-13-16r14-13-----------------------|
G|11-13-14------------------14-13h14p13p11h13p11---|
D|----------------------------------------------12-|
A|-------------------------------------------------|
E|-------------------------------------------------|

Интересные статьи

Собчак снова опозорила Волочкову
2011-12-04
Всем известно о давнем соперничестве между скандальной телеведущей Ксенией Собчак и балериной Анастасией Волочковой, которое видимо закончится не скоро.
> читать полностью

1 - Сайт содержит тексты песен, аккорды, табулатуры