Все песни

Все исполнители

Modern Times Rock`N`Roll

Автор: Queen

guitar solo
E|----------------15-15-------15-15-------15-15----------------|
B|-18b20----18b20-------18b20-------18b20-------18b20-18-18-15-|
G|-------------------------------------------------------------|
D|-------------------------------------------------------------|
A|-------------------------------------------------------------|
E|-------------------------------------------------------------|

E|-18p15----17p15----18p15----15-15-15-------15-15-------|
B|-------15-------15-------15----------18b20-------18b20-|
G|-------------------------------------------------------|
D|-------------------------------------------------------|
A|-------------------------------------------------------|
E|-------------------------------------------------------|

E|-15-15------15-15-------15-15-|
B|------18b20-------18b20-------|
G|------------------------------|
D|------------------------------|
A|------------------------------|
E|------------------------------|

E|---------------------------------------------------|
B|-18-15----15----------18b20---b19b20---18-16-------|
G|-------18----18-17-15------------------------17-15-|
D|---------------------------------------------------|
A|---------------------------------------------------|
E|---------------------------------------------------|

E|---------------------------|
B|---------------------------|
G|---------------------------|
D|-17-16-15-13----15-13------|
A|-------------15-------15__-|
E|---------------------------|

E|-------------------------------------------------|
B|---------------------------------------18-20b22--|
G|----------------------17-19p17---17-19-----------|
D|---------15----15-/19---------19-----------------|
A|__9_/17----17------------------------------------|
E|-------------------------------------------------|

E|--------20b22vv------|
B|--20-18--------------|
G|---------------------|
D|----------------0r//-|
A|---------------------|
E|---------------------|

Интересные статьи

Собчак снова опозорила Волочкову
2011-12-04
Всем известно о давнем соперничестве между скандальной телеведущей Ксенией Собчак и балериной Анастасией Волочковой, которое видимо закончится не скоро.
> читать полностью

1 - Сайт содержит тексты песен, аккорды, табулатуры