Все песни

Все исполнители

Let Me Entertain You

Автор: Queen

two guitars (both in the middle)
E|----------------------------------------|
B|----------------------------------------|
G|-4---4p0---0-4---4-----0-4---4-*---0-4--|
D|-2---2p0-----2---2p0-----2---2p0-----2--|
A|---------2-----------2p0---------2------|
E|----------------------------------------|

E|------------------------------------|
B|------------------------------------|
G|--4-----0-4---4------(0)-(0)--------|
D|--2p0---0-2---2p0---0-2---2p0-----5-|
A|------2p0---------2p0---------2p0-5-|
E|----------------------------------3-|

guitars turn panned
E|--------------------------------------------------|
B|-----------------------------------3---3-3-3-3----|
G|-4-4---4-4---4-4-------0-4-4---4---0---0-0-0-0-4--|
D|-2-2p0-2-2p0-2-2p0-------2-2p0-2p0-------------2--|
A|--------------------2-----------------------------|
E|--------------------------------------------------|

E|----------------------------------------|
B|----------------------------------------|
G|----4-4---4-4-2-----0-------------------|
D|--0-2-2p0-2-2-0-----0-2p0---------------|
A|------------------2-------2p0-----------|
E|------------------------------3-->>><<--|

riff A:
E|----------------------------------------|
B|-----------------------------------3----|
G0-4-4---4-4---4-----------4-4---4---0----|
D0-2-2p0-2-2p0-2-2p0-------2-2p0-2p0------|
A|---------------------2p0----------------|
E|----------------------------------------|

E|--------------------------------------------------|
B|--------------------------------------------------|
G|------0-4-4---4-4---4-4---------------------------|
D|--------2-2p0-2-2p0-2-2-0-----0-2p0---------------|
A|----------------------------2-------2p0-----------|
E|----------------------------------------3-->>><<--|

riff B:
E|----------------------------------------|
B|----------------------------------------|
G|-0-2p0-2-----0-2p0-2-----0-2p0-2-2p0-5b-|
D|-0-2p0-2---2---2p0-2---2-0-2p0-2-2p0-5b-|
A|----------------------------------------|
E|----------------------------------------|

E|------------------------------------------------------|
B|------------------------------------------------------|
G|-2p0-0-2p0-2-----0-2p0-2-----0-2p0--------------------|
D|-2p0-0-2p0-2---2-0-2p0-2---2-------2p0----------------|
A|---------------------------------------3---->>>>-3--2-|
E|------------------------------------------------------|

riff C:
E|----------------------------------------------|
B|----------------------------------------------|
G|----------------------------------------------|
D|--------0--2-4---5--4--4-----9----------------|
A|-2---3---------------2--2-----7---------------|
E|------------------------------0-------<<<<<<0-|

E|----------------------------------------|
B|-___------------------------------------|
G|-7h9--7--7------------------------------|
D|--------9---8-7-5-7b__9---x-x-----------|
A|--------------------------x-x-9---------|
E|------------------------------7-------x-|

1`8"
E|----------------------------------|--------------------------|
B|----------------------------------|--------------------------|
G|-<<<-------------------------2----|--------------------------|
D|-<<<-2p0-2p0---0-------------2----|--------------------------|
A|-------------2---2p0-2p0-----0...-|--------------------------|
E|-------------------------3p0------|-5-5-3---3------5-5-3---3-|

E|----|-------------------------------|
B|----|-------------------------------|
G|-0/-|-------------------------------|
D|-/0-|-------------------------------|
A|----|-------------------------------|
E|----|-5-5-0---0---0---0---0---0---0-|

riff A, riff B, riff C, X

E|-----------------------------------------------------------|
B|-___-----------------------------------------------2-4-2---|
G|-7h9--7---7------------------------------4-2-44----2-4-2---|
D|---------9---8-7-5-7b9--b9--b9__7p5------4-2-44----2-4-22--|
A|---------------------------------------..------------------|
E|------------------------------------2...-------2...------2-|

E|---------------------------|
B|---------------------------|
G|---------------------------|
D|---------------------------|
A|---------------------------|
E|-222----222----222-2-22222-|

A    G  F#  B
B|-12h13p12h13phphphph..|

E|        |--------------------------|
B|        |--------------------------|
G|        |-------...0-2-2-0---------|
D|riff A, |riff B -----------2-2-0---|
A|        |------------------------3-|
E|        |--------------------------|

E|---------------------------------------------------------|
B|---------------------------------------------------------|
G|---------------------------------------------------------|
D|--------0--2-4---------0--2-4---------0--2-4-5-4--4------|
A|-2---3----------2---3----------2---3------------2--2-----|
E|-------------------------------------------------------0-|

solo:
E|(0)----------------------------------------------------------|
B|-x17b19----17b19----17b19---17---14--------------------------|
G|------------------------------------16-14----------------14r-|
D|--------------------------------------------16--14-x-(0)-----|
A|-------------------------------------------------------------|
E|-------------------------------------------------------------|

E|----------------------------------------------------------|
B|----------------------------------------------------------|
G|-x4-------------------------14p11-14p11-14p11-14b16-14-16-|
D|-x4-2-----------------------14p11-14p11-14p11-14b16-14-16-|
A|------4-2-0-----------------------------------------------|
E|------------2-2-2-2-0rA/c#A-------------------------------|

E|------------------------|
B|------------------------|
G|-16p14----14------------|
D|-16p14-16-14-16---16p14-|
A|-------16----16---16p14-|
E|------------------------|

Интересные статьи

Собчак снова опозорила Волочкову
2011-12-04
Всем известно о давнем соперничестве между скандальной телеведущей Ксенией Собчак и балериной Анастасией Волочковой, которое видимо закончится не скоро.
> читать полностью

1 - Сайт содержит тексты песен, аккорды, табулатуры