Все песни

Все исполнители

Leaving Home Ain`t Easy

Автор: Queen

Intro:
  < > < > < > <  > < > < > < >  < >   < >  <  >  < <
E|-------------------------------------------------|
B|-1---3---6---65--1---3---4---64---6/8--108--10---|
G|-2---4---7---76--2---4---3---53---5/7---97-----9-|< : fade in
D|-1---3---9---97--1---3---5---75---7/9--119----11-|> : fade out
A|-------------------------------------------------|
E|-------------------------------------------------|

acoustic guitar:
E|------------------------------------------------------------|
B|----------------------------4----6-4---6-8--10-8-10-2--3-2--|
G|-2--------------------------3----5-3---5-7---9-7-11-2--2-2--|
D|-2--------------------------5----7-5---7-9--11-9-12-2--3-2--|
A|-0--------------------------0----0-0---0-0---0-0--0-0--0-0--|
E|------------------------------------------------------------|

          Em      A          Em7         A
I take a step outside and I breathe the air
       Em       A          C#m F#m
And I slam the door and I`m on my way
         Bm       E           Bm
I won`t lay no blame I won`t call you
  E                Bm      E
names `Cause I`ve made my break
       C#         F#m          C#
And I won`t look back  I`ve turned my
F#m           Dmaj7     G
back to those endless games.

The second verse is the same except :
              Bm            E
.... Shaking dust from my shoes  There`s a
 Bm     E                Bm
road ahead And there`s  no way  back
        D            E
home  (No way)   But I have to say

A V.    Em7 V.     D V.                       E VII.(slide down)
Leavin` home ain`t easy (Oh I never thought it would be easy)
A V.    Em7 V.    D V.                    E VII. (s.d)
Leavin` all  you  own (Oh is the main thing calling me back ?)
A V.    Em7 V.     D V. F#
Leavin` home ain`t  ea  sy
  Bm  F7   A           E7     A      Dm9   A
( On the  one you`re leaving home)

Stay my love ..... etc   the same as intro.

The rest is the same, except for the last
but one time the chorus is played:
 A V.  Em7 V.    D V. F#  Bm   F7
Leavin home ain`t ne  ce  ssa  ry
  Leave the on ly  way
E|----0-----0---0---0---5--|
B|----2-----3---4---5---7--|
G|----2-----4---5---6---7--|
D|----2-----4---6---7---7--|
A|----0-----0---0---0---5--|
E|-------------------------|

Интересные статьи

Собчак снова опозорила Волочкову
2011-12-04
Всем известно о давнем соперничестве между скандальной телеведущей Ксенией Собчак и балериной Анастасией Волочковой, которое видимо закончится не скоро.
> читать полностью

1 - Сайт содержит тексты песен, аккорды, табулатуры