Все песни

Все исполнители

Lazing On The Sunday Afternoon

Автор: Queen

guitar solo:
middle

E|-3//17---17-16---17-14--------------------------|
B|-------------------------14-14------------------|
G|-------------------------------16-14-16b18v-----|
D|------------------------------------------------|
A|------------------------------------------------|
E|------------------------------------------------|

E|----/17---16-14---16----------------------------------*-|
B|---------------------17---14-15-16-17---16-15-17-14---*-|
G|------------------------------------------------------*-|
D|------------------------------------------------------*-|
A|------------------------------------------------------*-|
E|------------------------------------------------------*-|

left
E|--------------------------------------------------------|
B|-2///314---14-13---14-10---10-10-----------------7//14--|
G|----------------------------------------------(0)-------|
D|---------------------------------12-11-12b14------------|
A|--------------------------------------------------------|
E|--------------------------------------------------------|

E|--------------------------------------------|
B|--14------14--------------------------------|
G|-----14--------------------14---13-12-14-11-|
D|-------------14---14-14-14------------------|
A|--------------------------------------------|
E|--------------------------------------------|

right
E|--------------------------------------------------------|
B|-2//17---17-16---17-14---14-14-------------------8//17--|
G|--------------------------------------------------------|
D|-------------------------------16-14-18b19v-------------|
A|--------------------------------------------------------|
E|--------------------------------------------------------|

E|--------------------------------------------|
B|--17-14---17---------------14---13-12-14-11-|
G|-------------14---14-16-17------------------|
D|--------------------------------------------|
A|--------------------------------------------|
E|--------------------------------------------|

E|------------------------------------------------------------|
B|17b19-17-15-14----------------------------------------------|
G|---------------16br-14-16b17-16-14h16p14--------------------|
D|----------------------------------------16p14---14-14----16-|
A|------------------------------------------------------16----|
E|------------------------------------------------------------|

middle
E|------------------------------------------------------------|
B|----------------------------------------------------17///22-|
G|------------------14-13h14p13------16b18---16-14------------|
D|----------14-16-----------------14--------------------------|
A|-16-17------------------------------------------------------|
E|------------------------------------------------------------|

left
E|--------------------------------------|
B|--------------------------------------|
G|----------------11-9-----11b13---11-9-|
D|---------11-12---------9--------------|
A|-11-12--------------------------------|
E|--------------------------------------|

right
E|--------------------------------------------|
B|--------------------------------------------|
G|--------------------------------------------|
D|---------------11-9h11p9------12b14---12-11-|
A|-8-9---11-12---------------11---------------|
E|--------------------------------------------|

Интересные статьи

Собчак снова опозорила Волочкову
2011-12-04
Всем известно о давнем соперничестве между скандальной телеведущей Ксенией Собчак и балериной Анастасией Волочковой, которое видимо закончится не скоро.
> читать полностью

1 - Сайт содержит тексты песен, аккорды, табулатуры