Все песни

Все исполнители

Keep Yourself Alive

Автор: Queen

right guitar
E|----------------------------------------|
B|----------------------------------------|
G|----------------------------------------|
D|----------------------------------------|
A|-slide down-----------------------------|
E|(11-11-11)-3111x11-111-111-1111111-1111-|

E|-------------------------------------|
B|-------------------------------------|
G|-------------------------------------|
D|-------------------------------------|
A|-------------------------------------|
E|-x1-1111111-1111111-1111111/55555555-|

E|-------------------------------------|
B|-------------------------------------|
G|-------------------------------------|
D|-------------------------------------|
A|-------------------------------------|
E|-555-555-555-555x5555555-555-555-555-|

E|---------------------------------|
B|---------------------------------|
G|---------------------------------|
D|---------------------------------|
A|---------------------------------|
E|-555-555-55555-55555-555-555-555-|
    >
E|---------------------------------|
B|---------------------------------|
G|---------------------------------|
D|---------------------------------|
A|---------------------------------|
E|-55555555555-555-5555555-555-555-|

E|----------------------------------------|
B|----------------------------------------|
G|----------------------------------------|
D|-------------------7777-----------------|
A|-------------------7777-----------------|
E|-555555555555555-555555--555555-5555555-|

E|-----------------------------------------|
B|-----------------------------------------|
G|-----------------------------------------|
D|-----------7777--------------------------|
A|-----------7777--------------------------|
E|-555555555-5555555555555-5555555-5555555-|

E|-------------------------------|
B|-------------------------------|
G|-------------------------------|
D|-------------------------------|
A|-------------------------------|
E|-5-5555555-5555555555555555555-|

E|-------------------------------|
B|---------------7---------5---1-|
G|-----------5---7---------3---2-|
D|-----------5---7-----5---5---3-|
A|-----------3---5-----3---3---3-|
E|-5555555-55----------3-------1-|

left guitar (8")
E|----------------------------------------------------------|
B|-------------------------7b8-7---8r7p5---7--5-------------|
G|-------------------------7b9-7---9r7p5---7--6---7p5---5-7-|
D|---------------------------------------------------7------|
A|----------------------------------------------------------|
E|-55555-5-55555-5555555x55---------------------------------|

E|-----------------------------------|
B|-b8-7---8r7p5---7--5---------------|
G|-b9-7---9r7p5---7--6---------------|
D|--------------7-------7p5---5-7----|
A|-------------------------7---------|
E|-----------------------------------|

E|-------------------------------------|
B|-0x7b8-7---8r7p5------5--------------|
G|---7b9-7---9r7p5---7--6--------------|
D|-----------------7---------7p5---5-7-|
A|------------------------------7------|
E|-------------------------------------|

E|--------------------------------------|
B|-7b8-7---8r7p5---7--5-----------------|
G|-7b9-7---9r7p5---7--6-----------------|
D|---------------7--------7p5---5-7-----|
A|---------------------------7----------|
E|--------------------------------------|

E|---------------------------------------|
B|-7b8-7---8r7p5---7--5---------------5b-|
G|-7b9-7---9r7p5---7--6---------------5b-|
D|---------------7--------7p5---5-7------|
A|---------------------------7-----------|
E|---------------------------------------|

E|-----------------------------------------------|
B|-5-7b8-7---8r7---7--5--------------------5---1-|
G|-5-7b9-7---9r7---7--6---------5-7--------3---2-|
D|--------------07--------7p5---5-7----5---5---3-|
A|---------------------------7---------3---3---3-|
E|-------------------------------------3-------1-|

|right guitar
E|-------------------------------------------------------------|
B|--------------------------------------------------6----------|
G|----------------------6-------5--5---------------4-----------|
D|---------------5-5----6---6---5-----------5---5-/-6----------|
A|---------------3---3--4---6---3-----------3---3-/-4----------|
E|-1-111........-3---3------4--------1-1...-3---------4-44.-5.-|
|left guitar
|               C      C#7 G#  C    F      C       C#7 G#   A

midle guitar
E|----------------------|
B|----------------------|
G|----------9---12b14vv-|
D|-7---9/11-------------|
A|----------------------|
E|----------------------|

"keep yourself alive"
|right and left guitar
|D  A  D C# B G A A D
|midle guitar
E|----------------------------------------------|
B|----------------------------------------------|
G|----------------------------------------------|
D|-7--8--9-/12--12----------12---12h14p12----12-|
A|--------------------12h14---------------14----|
E|----------------------------------------------|

right guitar
E|-------------------------------------------------------------|
B|-------------------------------------------------------------|
G|-------------------------------------------------------------|
D|--------------------------------------------------------77777|
A|--------------------------------------------------------77777|
E|55555-555-555-555555555-5555555555555-555555555555555-5-55555|
                                  >
E|---------------------------------------|
B|---------------------------------------|
G|---------------------------------------|
D|----------------------------77777-777--|
A|----------------------------77777-777--|
E|-(5)55555-5555555-5555555-5555555-555--|

E|-----------------------------------|
B|-----------------------------------|
G|-----------------------------------|
D|-----------------------------------|
A|-----------------------------------|
E|55-555-555-555-555-555-555-555-555-|

E|---------------------------------------------------------|
B|-------------------------------------------------------1-|
G|-------------------------------------------------5-7---2-|
D|-------------------------------------------------5-7---3-|
A|-------------------------------------------------3-5---3-|
E|-555-5555555-555-555-555555555-555-5555-55-555555------1-|

left guitar
E|-------------------------------------|
B|-b8-7---8r7p5---7--5-----------------|
G|-b9-7---9r7p5---7--6-----------------|
D|--------------7-------7p5---5-7------|
A|-------------------------7-----------|
E|-------------------------------------|

E|-----------------------------------|
B|-7b8-7---8r7p5---7--5--------------|
G|-7b9-7---9r7p5---7--6--------------|
D|---------------7---------7p5---5-7-|
A|----------------------------7------|
E|-----------------------------------|

E|--------------------------------------|
B|-7h8---8-8-7-5---5----7h8---8-8-7-5---|
G|-7h9---9-9-7-6---6----7h9---9-9-7-5h6-|
D|-----------------7----7---------------|
A|--------------------------------------|
E|--------------------------------------|

E|------------------------------------|
B|---5----7h8---8-8---8/10-10---10-10-|
G|---6----7h9---9-9---9/11-11---11-11-|
D|---7----7-----7-7---7---------------|
A|------------------------------------|
E|------------------------------------|

E|-------------------------------------------------------------|
B|/12---12-12-12-12-/14---7b8-7---8r7p5---7--5-----------------|
G|/12---12-12-12-12-/14---7b9-7---9r7p5---7--6--------5-7--/10-|
D|/12---12-12-12-12-/14-----------------7-------7p5---5-7--/10-|
A|--------------------------------------------------7--3-5--/8-|
E|-------------------------------------------------------------|

E|-------------------------------------------------------------|
B|----------------5---6---6-4-----1----------5--5-6----6-4-----|
G|----------3-2---5---6---6-5-5-5-2----------5--5-6----6-5---6-|
D|----------3-3---5---6---6-6-6-5-3----------5--5-6----6-6---7-|
A|----------------3---4---4-6-6-3-3----------3--3-4----4-6---7-|
E|-1-111...1----------------4-----1-/5-555...------------4---5-|
|left guitar
|                C   C#    G#  C        xxx C    C#     G#
midle guitar fill
E|---------------------|
B|---------------------|
G|---------------------|
D|-5h7---5-------------|
A|--------76---3-----5-|
E|----------------5----|

left and right guitar
D  A  D C# B G A A D

guitar fill (two guitars arr. for one)
E|---------------------------------------------------|
B|---------------------------------------------------|
G|--right----left------------------------------------|
D|-11p9h11p9-7--8--9/12--12---16r14p12---------12-14-|
A|-------------------------------------14---14-------|
E|---------------------------------------------------|

|right guitar
E|----------------------------------------------------|
B|-1--------------------------------------------------|
G|-2---2/10---11--b12vv-107--5--6--7---9b10-9v---7--5-|
D|-3--------------------------------------------------|
A|-3--------------------------------------------------|
E|-1--------------------------------------------------|

E|-------------------------------------------------------|
B|-------------------------------------------------------|
G|-5-5-5-5-5---5-5-5-5-5---5--6--7-7-9b10---7------------|
D|--------7-----------7-----------------------10-8-7-5-3-|
A|-------------------------------------------------------|
E|-------------------------------------------------------|

left guitar I
E|------------------------------------|
B|-13---15-16-17vvv-15b18--15-13--15--|
G|------------------------------------|
D|------------------------------------|
A|------------------------------------|
E|------------------------------------|

E|---------------------------------------|
B|----------------13b15---13-11-10-------|
G|-14p12-14p12-10------------------12b14-|
D|---------------------------------------|
A|---------------------------------------|
E|---------------------------------------|

E|------------------------------------------------|
B|------------------------------------------------|
G|-14r12p10----10----12b14--b14--b14r12p10----10--|
D|----------12-----------------------------12-----|
A|------------------------------------------------|
E|------------------------------------------------|

E|-----------------------------|
B|-----------------------------|
G|--12b14--b14-b14-14r12p10----|
D|--------------------------12-|
A|-----------------------------|
E|-----------------------------|

E|-------------------------------------------|
B|---------------------13-------13-------13--|
G|-12b14--12-----12b14----12b14----12b14-----|
D|-------------------------------------------|
A|-------------------------------------------|
E|-------------------------------------------|

E|-----------------------------------|
B|------13---------------------------|
G|12b14-----14r12p10--------------10-|
D|-------------------12p10--10h12----|
A|-----------------------------------|
E|-----------------------------------|

left guitar II
E|------------------------------------------------------------|
B|-3p2p0h2h3p2p0h2-10-11-12-b13-13r11_p10---------------------|
G|---------------------------------------10-10-9-9-7----12b14-|
D|------------------------------------------------------------|
A|------------------------------------------------------------|
E|------------------------------------------------------------|

E|-------------------------------------------------------------|
B|-------------------------------------------------------------|
G|-12-10-----------------10-10-10-10----10-10-10-10----10----9-|
D|-------12-10---8--8--7-------------12-------------12----12---|
A|-------------------------------------------------------------|
E|-------------------------------------------------------------|

E|---------------------------|
B|---------------------------|
G|-10--9--7--10--7-----------|
D|----------------10-8-7-5-3-|
A|---------------------------|
E|---------------------------|

left and right guitar
D (G) D  A  D F# B G A A E

right guitar
E|----------------|
B|-------14b15-14-|
G|-------14b16-14-|
D|----------------|
A|-0---0----------|
E|----------------|

|right guitar
E|----------------------------14-15-16-b17vv-|
B|----------------14-15-16-17----------------|
G|-------13-14-16----------------------------|
D|-14-16-------------------------------------|
A|-------------------------------------------|
E|-------------------------------------------|
|left guitar
E|-------------------------------------------|
B|-------------------------------12-13-b14vv-|
G|-------------------11-12-13-14-------------|
D|----------11-12-14-------------------------|
A|-11-12-14----------------------------------|
E|-------------------------------------------|
|midle guitar
E|-------------------------------------------|
B|----------------------------14-15-16-b17vv-|
G|----------------13-14-15-16----------------|
D|----------14-16----------------------------|
A|-14-16-17----------------------------------|
E|-------------------------------------------|

right guitar
D (G) D  A  D F# B G A A D
left guitar
E|--------------------------------------------|
B|--------------------------------------------|
G|--------------------------------------------|
D|-7--8--9/12--12---------12---12h14p12----12-|
A|------------------12h14---------------14----|
E|--------------------------------------------|

right guitar
F (A#) F  C  F A D A# C C
D (G) D  A  D F# B G A A D
B (E) B  F# ... B ...
left guitar
E|-------------------------------------------------------------|
B|-------------------------------------------------------------|
G|-------------------------------------------------------------|
D|-9p7--8--9/12-12-14-14b16-14-14b16-14-14b16-b16-14-12b-9-8-9-|
A|-------------------------------------------------------------|
E|-------------------------------------------------------------|

E|------7------------------------7-----7-----7--|
B|--------10p7-10b12-b11v-7---------------------|
G|-9b11---------------------9b11---b11---b11----|
D|----------------------------------------------|
A|----------------------------------------------|
E|----------------------------------------------|

E|----7-------------------|
B|------------------------|
G|b11---11r9p7---9-7----4-|
D|-------------9-----9-4--|
A|----------------------2-|
E|------------------------|

Интересные статьи

Собчак снова опозорила Волочкову
2011-12-04
Всем известно о давнем соперничестве между скандальной телеведущей Ксенией Собчак и балериной Анастасией Волочковой, которое видимо закончится не скоро.
> читать полностью

1 - Сайт содержит тексты песен, аккорды, табулатуры