Все песни

Все исполнители

Jealousy

Автор: Queen

G|-----------------------11-------11/14------------------------|
D|----10-12-13-------9------13-12------------------------------|
A|-8------------8----------------------------------------------|
E|--------------------------------------3-----1-----5--5--5--5-|

G|------------------------------------------------5-5--3-----3-|
D|-8-6-5------------------10----5--------5-4-3-----------------|
A|-------8-6-----8h10-------------5----------------------------|
E|--------------------8-------------3--------------------------|

G|-3/15--15--15--15---13(6)-----8---8---8---6-6----|
D|-----------------------------8-----------8-------|
A|-------------------------6-----------------------|
E|-----------------------------------------------4-|

G|------------------------------------3--|
D|---------------------------------------|
A|---------3---3-1----6---5---3---1----1-|
E|-4-3----3------------------------------|

G|-----7/12-12(3)---------------7-----------9---------------10-|
D|--------------------------------7-8-5-7-8--------------------|
A|-6-5-----------------------------------------3-1-------------|
E|----------------2-2-2-2-3/135-------------------3-/-6-8/9----|

G|-9/10---17-19-20----20/17------------19146----11-------1411-|
D|---------------------------19--17------------------13-12----|
A|------------------------------------------------------------|
E|------------------------------------------------------------|

G|---------------------------------------5-3--3-----3--3--3--3-|
D|-8-6-5--------------10-5-----5-5-4-3-3----------3------------|
A|-------8-6-6-8h10--------5-----------------------------------|
E|------------------8--------3---------------------------------|

G|---------------8------------------------------------|
D|------------------8-----8---------------------------|
A|-6---6---6-6--------6-----6-----------------3---3-1-|
E|----------------------------9-8-4---4-3---3---------|

G|---------------------------------|
D|---------------------------------|
A|-1-6----5----3----1----1/6----65-|
E|---------------------------------|

G|-7/12-12-12-12-12-12------------|
D|--------------------------------|
A|-------------------------10-8-6-|
E|---------------------3-6--------|

G|-----------------7/12-12-12-/19----|
D|--------------------------------20-|
A|-5-5-3---------5-------------------|
E|-------5-2-3-3---------------------|

G|--------------7-----------9--------10--/12----/15-----/18/19-|
D|----------------7/8---7-8-----8-10---------------------------|
A|-9-----------------------------------------------------------|
E|---10-2-3-x-x------3/-------3--------------------------------|

Интересные статьи

Собчак снова опозорила Волочкову
2011-12-04
Всем известно о давнем соперничестве между скандальной телеведущей Ксенией Собчак и балериной Анастасией Волочковой, которое видимо закончится не скоро.
> читать полностью

1 - Сайт содержит тексты песен, аккорды, табулатуры