Все песни

Все исполнители

It`s A Hard Life

Автор: Queen

solo
E|-----------------------------|
B|-----------------------------|
G|----15b17-17_r15p13-15-12----|
D|-13-----------------------13-|
A|-----------------------------|
E|-----------------------------|

E|---------------------------------------|
B|---------------------------------------|
G|----------12b13-12b13-13r12p10-12-8----|
D|-13-12h13---------------------------10-|
A|---------------------------------------|
E|---------------------------------------|

E|-------------------------10---11---13_r-11----------|
B|-----11b13__r11-/-13-----------------------11___/16-|
G|-8-8-15b17__r15-/-17--------------------------------|
D|----------------------------------------------------|
A|----------------------------------------------------|
E|----------------------------------------------------|

E|-15-15b_16-15b16rbrb-15/16-16b18-16--15---------18b_20-18-18-|
B|-----------------------------------------18--16-18b_20-18-18-|
G|------------------------------------------------19b_20-19-19-|
D|-------------------------------------------------------------|
A|-------------------------------------------------------------|
E|-------------------------------------------------------------|

Интересные статьи

Собчак снова опозорила Волочкову
2011-12-04
Всем известно о давнем соперничестве между скандальной телеведущей Ксенией Собчак и балериной Анастасией Волочковой, которое видимо закончится не скоро.
> читать полностью

1 - Сайт содержит тексты песен, аккорды, табулатуры