Все песни

Все исполнители

Is This The World We Created?

Автор: Queen

[Fade in]                   Pause
E|--5-----5-----5-----5----|
B|--7-----7-----7-----7----|
G|--7--7--7--7--7--7--7--7-|
D|--0-----0-----0-----0----|
A|-------------------------|
E|-------------------------|

Introduction:

E|-5---5---5---5---5---5---3---3-------------0-----|
B|-7---7---7---7---7---7---3-3-3-3-6---6---6-------|
G|-7-7-7-7-6-7-6-7-5-7-5-7-4---4---7---7---0---7---|
D|-0---0---0---0---0---0---0---0---8-8---7-8-----8-|
A|-----------------------------------------8-------|
E|---------------------------------6---------------|

E|---------------------7--10-|
B|--------------7--10--------|
G|--------7--9---------------|
D|--7--0---------------------|
A|--5------------------------|
E|---------------------------|

Verse:
       Just look at all those ...
E|-----10-10-10-10-10-10-10--9-----9--7---|
B|-----7--7--7--7--7--7--7---7--7-----5---|
G|*----7--7--7--7--7--7--7---7--------7--*|
D|*-9------------------------7--------5--*|
A|----------------------------------------|
E|----------------------------------------|

    So many lonely faces...
E|-----5--5--5--5-----5-----------|
B|-----5--5--5--3--3-----3--------|
G|-----0--0--0------------------0-|
D|--7-----------4------------2----|
A|--------------------------------|
E|--------------------------------|

E|--5--7--3-|-2--3--2--0-------------------------------3-|
B|----------|-------------2--0-----3----------------3----|
G|----------|-3--------------4-----4----------0--4-------|
D|----------|-4--------------5--------5-(4)-2------------|
A|----------|--------------------------------------------|
E|----------|--------------------------------------------|

Chorus:
[Strum]
E|--5~~~--5~~~--5--5--5--5--3-|
B|--7~~~--7~~~--7--7--7--7--3-|
G|--7~~~--6~~~--6--7--6--7--4-|
D|--0~~~--0~~~--0--0--0--0--0-|
A|----------------------------|
E|----------------------------|

    Bm    F#m   A
E|--2~~~--2~~~--0~~~------------------------|
B|--3~~~--2~~~--2~~~---                    -|
G|--4~~~--2~~~--2~~~--- Go to introduction -|
D|--4~~~--4~~~--2~~~---                    -|
A|--2~~~--4~~~--0~~~------------------------|
E|--------2~~~------------------------------|

Comment: I basically only transcribed the first verse and
         chorus. I then assume the that the second verse and
         chorus are identical. BTW they`re not (but there`s not
         much difference).

Lyrics:

Is This the World We Created? (Mercury/May)

Verse 1	Just look at all those hungry mouths we have to feed
	Take a look at all the suffering we breed
	So many lonely faces scattered all around
	Searching for what they need

Chorus	Is this the world we created
	What did we do it for
	Is this the world we invaded
	Against the law
	So it seems in the end
	Is this what we`re all living for today
	The world that we created

Verse 2	You know that every day a helpless child is born
	Who needs some loving care inside a happy home
	Somewhere a wealthy man is sitting on his throne
	Waiting for life to go by

Chorus	Is this the world we created
	We made it on our own
	Is this the world we devasted
	Right to the bone
	If there`s a God in the sky looking down
	What can he think of what we`ve done
	To the world that he created

Интересные статьи

Собчак снова опозорила Волочкову
2011-12-04
Всем известно о давнем соперничестве между скандальной телеведущей Ксенией Собчак и балериной Анастасией Волочковой, которое видимо закончится не скоро.
> читать полностью

1 - Сайт содержит тексты песен, аккорды, табулатуры