Все песни

Все исполнители

I Want It All

Автор: Queen

E|----------7----7---------------10p7h10p7------------|
B|-10b12v-----10---10-7-10p7h10p7---------10p7-10b12v-|
G|----------------------------------------------------|
D|----------------------------------------------------|
A|----------------------------------------------------|
E|----------------------------------------------------|

E|--------------------------|
B|-10-7---------------------|
G|------9b10__r9--7-9-7h9p7-|
D|--------------------------|
A|--------------------------|
E|--------------------------|

E|17b19_r--17---14-----------------------17--|
B|-----------------17b19---17v-----17b19-----|
G|-------------------------------------------|
D|-------------------------------------------|
A|-------------------------------------------|
E|-------------------------------------------|

E|----------------------------------|
B|-19r17p15-17b19__r17p15-----------|
G|------------------------16---14vv-|
D|----------------------------------|
A|----------------------------------|
E|----------------------------------|
 ...

E|--------------------7-7--------------------------------------|
B|-9b_10-------7-10p7-----10b12--10b12___r10p7-----------------|
G|-9b_11---b11---------------------------------10r9p7-6-7--9---|
D|-----------------------------------------------------------7-|
A|-------------------------------------------------------------|
E|-------------------------------------------------------------|

E|----------____-7---------------------------|
B|-10b__12--7h10---7-------------------------|
G|-------------------10-9-7------------7-___-|
D|--------------------------9-7-----9----9p7-|
A|-------------------------------------------|
E|-------------------------------------------|

E|------------------10b12-10-7----7------7---------------------|
B|-----------------------------10---7h10---10b12__rbrp8--------|
G|-----7------------------------------------------------10p9p7-|
D|-9-------9p7-9--7--------------------------------------------|
A|-------------------------------------------------------------|
E|-------------------------------------------------------------|

|------------17p14--17p14-------------|
|--------15-------14-----1417b19--17v-|
/14--16----16-------------------------|
|-------------------------------------|
|-------------------------------------|
|-------------------------------------|

E|---------------------|
B|-17b19____r17p15-----|
G|----------------16vv-|
D|---------------------|
A|---------------------|
E|---------------------|

 ..
E|---------------------------------------------------------|
B|...15p14-------15p14-------17b19vv-----------------------|
G|---------16p14-------16p14-------------------------------|
D|--------------------------------------16__r14p12---------|
A|-------------------------------------------------14---14-|
E|---------------------------------------------------------|

E|----------------------------------|
B|----------------------------------|
G|----------------------------------|
D|----------------------------------|
A|----------------------12----12h14-|
E|-14-12p10-12p10-12/14----14-------|

E|-------------------------------|
B|-------------------------------|
G|-------________----------------|
D|-12-14b16r14p12-14p12----------|
A|----------------------14p12-14-|
E|-------------------------------|

E|-------------------------------------|
B|-15b17---15b17---r15v----7-6-5-------|
G|-------------------------------7-4-2-|
D|-------------------------------------|
A|-------------------------------------|
E|-------------------------------------|

E|---------------------------------|
B|-3p2-----3p2-----3p2-----3p2-----|
G|-----4p2-----4p2-----4p2-----4p2-|
D|---------------------------------|
A|---------------------------------|
E|---------------------------------|

E|-------------------------------------------------------|
B|-5b7vvvr5--3-5p3-2-3p2---------------------------------|
G|-----------------------4-x-4p2---2---------------------|
D|-------------------------------4---4p2p0-2p0-2p0-------|
A|-------------------------------------------------2p0-2-|
E|-------------------------------------------------------|

E|----------------------------------------------------------|
B|-15____-15vv17----17b19__r17p15--------------17b19--17b19-|
G|--------------------------------16--17rbr16---------------|
D|----------------------------------------------------------|
A|----------------------------------------------------------|
E|----------------------------------------------------------|

E|---------------------------|
B|-17b19--17b19__r17p15------|
G|----------------------16_v-|
D|---------------------------|
A|---------------------------|
E|---------------------------|

E|----------------10---10...-10/12---12---12----|
B|-13b15-13-13b15---b15-----------b17--b17--b17-|
G|----------------------------------------------|
D|----------------------------------------------|
A|----------------------------------------------|
E|----------------------------------------------|

E|-------------------------------------------------|
B|-19r17p15-14-15p14-------------------------------|
G|-------------------16p14-16p14----14-------------|
D|-------------------------------16----1614-12-----|
A|----------------------------------------------14-|
E|-------------------------------------------------|

 ...
E|---------------------8-7--5---5------------------------------|
B|-------5h8p5-8b10-----------8--------------------------------|
G|-7b9----------------------------7b9--7---5-7p5-4-------------|
D|-------------------------------------------------7-5---3---5-|
A|-------------------------------------------------------------|
E|-------------------------------------------------------------|

E|-17b19------17---14------------------------------------------|
B|----------------------18r_17_p15--17--15--14--15p14h15p14----|
G|----------------------------------------------------------16-|
D|-------------------------------------------------------------|
A|-------------------------------------------------------------|
E|-------------------------------------------------------------|

E|---------------------------------------------|
B|-14------------------------------------------|
G|----16-14h16p14----14------------------------|
D|----------------16----16-15-14-13--14--12___-|
A|---------------------------------14--14------|
E|---------------------------------------------|

Интересные статьи

Собчак снова опозорила Волочкову
2011-12-04
Всем известно о давнем соперничестве между скандальной телеведущей Ксенией Собчак и балериной Анастасией Волочковой, которое видимо закончится не скоро.
> читать полностью

1 - Сайт содержит тексты песен, аккорды, табулатуры