Все песни

Все исполнители

I`m In Love With My Car

Автор: Queen

solos:
E|----------------------------------------------------|
B|------------------------------------------2-3-5b7v--|
G|-------0h2h4p2~4-p0-----------------0h2h4-----------|
D|-0h2h4--------------2-----0-----2h4-----------------|
A|-----------------------4----------------------------|
E|----------------------------------------------------|

E|-------------------------|
B|-r5p3-5p2-3p2------------|
G|---------------4p2-4p0h2-|
D|-------------------------|
A|-------------------------|
E|-------------------------|

37"
E|---------------------------------------------|
B|---------------------------------------------|
G|---------------14b16___r15b16r14p1214b16-----|
D|------------14-------------------------------|
A|------10-14----------------------------------|
E|-*-12----------------------------------------|

E|----------------------------------------|
B|-15b17----15--13--12--------------------|
G|----------------------b15_r14p12--------|
D|---------------------------------14-12--|
A|----------------------------------------|
E|----------------------------------------|

E|------------------------------|-------------------------|
B|-b20__r18-b20--b19-b20__r-17--|-------------------------|
G|------------------------------|-15__r14p12-14b15--------|
D|------------------------------|--------------------14---|
A|------------------------------|-------------------------|
E|------------------------------|-------------------------|

 1`21"
E|--------------------------------|
B|--------------------------------|
G|-4p2----------------------7rrr4-|
D|--------3p2p0-----4/5-----------|
A|--------------2-----------------|
E|--------------------------------|

E|-----------------------------------------|
B|-----------------------------------------|
G|-7b9__-7--5--4--5--4~5-------------------|
D|------------------------7-5~7---54-------|
A|-------------------------------------7p5-|
E|-----------------------------------------|

1`43"
E|---------------------------------------------------|
B|---------------------------------------------------|
G|-----------------------2h4h5---4h5p4p2p0h2p0-------|
D|-2h4h5p4p2p0---0h2h4h5-----------------------4p2p0-|
A|---------------------------------------------------|
E|---------------------------------------------------|

E|---------------------------------------|
B|---------------------------------------|
G|----------------------------12h14b16v--|
D|----------------------12h14------------|
A|----------10--12--14-------------------|
E|-8//1012-------------------------------|

E|--------------------------------|
B|-15--17v-----15--17--b19_r17----|
G|-----------------------------14-|
D|--------------------------------|
A|--------------------------------|
E|--------------------------------|

E|--------------------------------------------------17---------|
B|-(17)b20---b19--17--15--17--17b19_r17p15--17--19------19b21v-|
G|-------------------------------------------------------------|
D|-------------------------------------------------------------|
A|-------------------------------------------------------------|
E|-------------------------------------------------------------|
2`34
E|------------|-----------|--------------------|
B|------------|-----------|--------------------|
G|-0h2h4p2----|-----------|-p2h4p2p0-----------|
D|---------0--|-5p4p2p0---|------------3---0---|
A|------------|-----------|--------------------|
E|------------|-----------|--------------------|

E|---------------------|-----------------|
B|---------------------|-5p3-5p3---3-----|
G|-4h5p4p2p0h2h4p2p0---|---------5---5b7-|
D|---------------------|-----------------|
A|---------------------|-----------------|
E|---------------------|-----------------|

E|-----------------------------------------------------|
B|-----------------------------------------------------|
G|-5----2---5p2-5p2-5p2--------------------------------|
D|----------------------5p3-5p3------------------------|
A|------------------------------5---5p3-5p3------------|
E|------------------------------------------5p0-5-3-1--|

E|-----------------------------|
B|------------------3---3-5b6v-|
G|----------------5---5--------|
D|----------6r5b6--------------|
A|--3-5-3-5--------------------|
E|-----------------------------|

two gtrs arr for one
E|-3-3----3-3--0-----0-2-2-|
B|-3-3----2-3--3--3--3-3-3-|
G|-0-0----2-2--2--2--2-2-2-|
D|-0-0----2-2--------0-0---|
A|-2-2---------------------|
E|-------------------------|

The chords:

Intro: D

Em G              D
The machine of a dream.
C                          Em                 G
 Such a clean machine.     When the pistons a pumpin`,
D                    C        Em
 And the hubcaps all gleam.     When I`m holding your wheel,
G                          D
 All I hear is your gear,   When my hand`s on your grease gun,
C
 Oh, it`s like a disease son.

Em                    G      D                  C
  I`m in love with my car.    Gotta feel for my automobile.
Em                 G
  Get a grip on my boy racer rollerbar,
D                       C
Such a thril when your radials squeal.

A slide to B (4time)
 Told my girl I just had to forget her,
 B sl C (4times)
 Rather, buy me a new carburetor,
 So she made tracks saying this is the end now,
 Cars don`t talk back,
 they`re just four wheeled friends now.
D

When I`m holding your wheel,
All I hear is your gear,
When I`m cruising in overdrive,
Don`t have to listen to no run of
the mill talk jive.

I`m in love with my car. Gotta feel for my automobile.
I`m in love with my car. String back gloves in my automolove.

outro:D

Интересные статьи

Собчак снова опозорила Волочкову
2011-12-04
Всем известно о давнем соперничестве между скандальной телеведущей Ксенией Собчак и балериной Анастасией Волочковой, которое видимо закончится не скоро.
> читать полностью

1 - Сайт содержит тексты песен, аккорды, табулатуры