Все песни

Все исполнители

Good Company

Автор: Queen

E|-------11-14-------11-14-|-18__p17-18---1716---18p16---14-|
B|----12----------13-------|-14__p13-14---1312---14p12---11-|
G|-11----------14----------|--------------------------------|
D|-------------------------|-6-------6____3-------3___//4---|
A|-------------------------|--------------------------------|
E|-------------------------|--------------------------------|

E|-----------------------|-------------------------------------|
B|-----------------------|-------------------19-----16--17/18v-|
G|-----------20-18h20p18-|-18__h20p1817--18-----18-------------|
D|-----18-21-------------|-------------------------------------|
A|-20--------------------|-------------------------------------|
E|-----------------------|-------------------------------------|

E|---------14h16phphph--|--13/14____----------------------|
B|-------14-------------|-----------------------------14--|
G|-----15---------------|--------------13-14-14-13--------|
D|-16-------------------|-----------16-------------16-----|
A|----------------------|---------------------------------|
E|----------------------|---------------------------------|

E|-14-----------------|
B|----14--------------|
G|-------15-11h13hp..-|
D|--------------------|
A|--------------------|
E|--------------------|

Интересные статьи

Собчак снова опозорила Волочкову
2011-12-04
Всем известно о давнем соперничестве между скандальной телеведущей Ксенией Собчак и балериной Анастасией Волочковой, которое видимо закончится не скоро.
> читать полностью

1 - Сайт содержит тексты песен, аккорды, табулатуры