Все песни

Все исполнители

Friends Will Be Friends (2 вариант)

Автор: Queen

solo:

  G F                G F             ???
E|------------      --------------------|
B|----5____-3-      --5h6-5-------3h4-3-|
G|-----5__-3--      --5---5---7-5-3---3-|
D|-3/5--53---       --5h7-5-------3h5-3-|
A|------------      --------------------|
E|------------      /-------------------|

E|------------------------------------|
B|------------------------------------|
G|---------------7-9b11-7----9-11-12--|
D|-----5---5-7/9----------------------|
A|-5h7--------------------------------|
E|------------------------------------|

E|----------------------------12---------------|
B|-------------------------15------------------|
G|--11-12-14---12-14-14b16-------16b14--12-----|
D|------------------------------------------14-|
A|---------------------------------------------|
E|---------------------------------------------|

E|-------12---------------------------|
B|-----------------------________-----|
G|-12-14----14b16---14---12h14p12-11--|
D|------------------------------------|
A|------------------------------------|
E|------------------------------------|

E|-----------------------------------------|
B|--________-----______-----_____--------8-|
G|--11h12p11-9---9h11p9-7---7h9p7------7---|
D|--------------------------------10-9-----|
A|-----------------------------------------|
E|-----------------------------------------|

E|----------------------------------10b12----10-8-7---------|
B|-10b12___r10p8-10---12r10p8-7-8-------------------10-8...-|
G|----------------------------------------------------------|
D|----------------------------------------------------------|
A|----------------------------------------------------------|
E|----------------------------------------------------------|
warning: tape-transribed, not too reliable

Интересные статьи

Собчак снова опозорила Волочкову
2011-12-04
Всем известно о давнем соперничестве между скандальной телеведущей Ксенией Собчак и балериной Анастасией Волочковой, которое видимо закончится не скоро.
> читать полностью

1 - Сайт содержит тексты песен, аккорды, табулатуры