Все песни

Все исполнители

Don`t Try Suicide

Автор: Queen

solo:     -3-                                -3-
E|-------------------------------------------------------|
B|-----------8-10b11--b11-------10b11--b11_r----8-10b11--|
G|----------8----------------8-----------------8---------|
D|--------10----------------x----------------10----------|
A|->>>10-------------------------------------------------|
E|->>>8--------------------------------------------------|

E|-----------|
B|-b11_r10p8-|
G|-----------|
D|-----------|
A|-----------|
E|-----------|

E|---------------------------------------------------------|
B|-10b12--b12-8----8---------------------------------------|
G|--------------10---10b12--b12vvv----10---10--------------|
D|--------------------------------------------12-10-12-10--|
A|---------------------------------------------------------|
E|---------------------------------------------------------|

E|---------------|
B|---------------|
G|---------------|
D|--10-8----10-8-|
A|-------10------|
E|---------------|

E|----------------------------------10b12...-|
B|----10b11-b11-----8-11b12-11v----8---------|
G|--8--------------8--------------8----------|
D|---------------10-------------10-----------|
A|-------------------------------------------|
E|-------------------------------------------|

Интересные статьи

Собчак снова опозорила Волочкову
2011-12-04
Всем известно о давнем соперничестве между скандальной телеведущей Ксенией Собчак и балериной Анастасией Волочковой, которое видимо закончится не скоро.
> читать полностью

1 - Сайт содержит тексты песен, аккорды, табулатуры