Все песни

Все исполнители

Don`t Stop Me Now (3 вариант)

Автор: Queen

guitar solo
E|--------------------------------------|
B|------10v-----------10v-10v-----------|
G|12b14-----14r_12p10---------14r12_p10-|
D|--------------------------------------|
A|--------------------------------------|
E|--------------------------------------|

E|---------------------------|
B|-------------b11~-10-------|
G|-12-10-9-10v---------12-10-|
D|---------------------------|
A|---------------------------|
E|---------------------------|

E|---------------------------------|
B|---------------------------------|
G|-12b14---b13--b14--b13--14r12----|
D|------------------------------10-|
A|---------------------------------|
E|---------------------------------|

E|----------------------------------------------------|
B|-11b13v---13r11p10-b13---b13---13r11p10-11-10----10-|
G|----------------------------------------------12----|
D|----------------------------------------------------|
A|----------------------------------------------------|
E|----------------------------------------------------|
                *
E|-----------------------------------------------------------|
B|-11--10----------------------------------------------------|
G|----------12---10---12b14--12--b14--12--b14--12--14r12p10v-|
D|-----------------------------------------------------------|
A|-----------------------------------------------------------|
E|-----------------------------------------------------------|

E|---------------------------------------|
B|---------------------------------------|
G|---------------------------------------|
D|---------------------------------------|
A|-10--12r10-8---8---10/12--10--10--8----|
E|------------------------------------10-|

E|-----------------------------------------------------|
B|-----------------------------------------------------|
G|-10h12p10----10---10h12p10----10---10h12p10----10v~~-|
D|----------12---------------12---------------12-------|
A|-----------------------------------------------------|
E|-----------------------------------------------------|

E|------------------------|-20-20-20-20-20-20-20-20-|
B|-b15-b15-b15-b15-b15v~~-|-22-22-22-22-22-22-22-22-|
G|------------------------|-------------------------|
D|------------------------|-------------------------|
A|------------------------|-------------------------|
E|------------------------|-------------------------|

* on the Live Killers version:
E|-----------------------------------------------|
B|-13p10h13p10-----------------------------------|
G|-------------12p10h12p10-12p10-----------12-10-|
D|-------------------------------12---10---------|
A|-----------------------------------------------|
E|-----------------------------------------------|
Transcribed by Pinter Denes

Lyrics and chords:

   F                      Am            Dm
Tonight, I?m gonna have myself a real good time
        Gm  C           F        F7            Bb
I feel alive, and the world, turning inside out, yeah
     Gm7                D7          Gm    F   C  Gm
and floating around in ecstasy, so don?t stop me now
  Gm    F  C              Gm7                 C
Don?t stop me ?cause I?m having a good time, having a good time.
        F                               Am           Dm
I?m a shooting star leaping through the sky, like a tiger
             Gm        C
defying the laws of grafity
       F                  Am                Dm
I?m a racing car, passing by, like lady Godiva
        Gm             C                 F
I?m gonna go, go, go,there?s no stopping me
     F7                  Bb         Gm7
I?m burning through the sky, yeah, 200 degrees,
                 D7                  Gm
that?s why they call me Mister Fahrenheit
     D7                         Gm
I?m travelling at the speed of light.
                Bb   F    Bb      G7   C
I wanna make a supersonic man out of you
 F     Gm  Am  Dm
Don?t stop me now, I?m having such a
  Gm7           C
good time, I?m having a ball
 F    Gm  Am  Dm
Don?t stop me now, if you wanna have a
Gm7             D7
good time, just give me a call
Gm    F    C           Gm7
Don?t stop me cause I?m having a good time
Gm     F   C           Gm
Don?t stop me, yes I?m having a good time,
                     (x13141)
C                    Bbm7sus4
I don?t want to stop at all


I?m a rocket ship, on my way to mars, on a collision course
I am a satellite, I?m out of control
I?m a sexmachine, ready to reload, like an atombomb
about to oh, oh, oh, oh, to explode
I?m burning through ...N.C.

Don?t stop me, don?t stop me, don?t stop me, hey hey hey
Don?t stop me, don?t stop me, oh oh oh
Don?t stop me, don?t stop me, have a good time, good time
Don?t stop me, don?t stop me, Ahhhhh

Интересные статьи

Собчак снова опозорила Волочкову
2011-12-04
Всем известно о давнем соперничестве между скандальной телеведущей Ксенией Собчак и балериной Анастасией Волочковой, которое видимо закончится не скоро.
> читать полностью

1 - Сайт содержит тексты песен, аккорды, табулатуры