Все песни

Все исполнители

Don`t Stop Me Now (2 вариант)

Автор: Queen

guitar solo
E|------------------------------------------------------------|
B|----------------------------------------------b12~-10-------|
G|-12b14-b14-r12p10-b14-b14-14r12p10-12-10-9-10---------12-10-|
D|------------------------------------------------------------|
A|------------------------------------------------------------|
E|------------------------------------------------------------|

E|---------------------------|
B|-------10------------------|
G|-12b14----b14-b13-14r12----|
D|------------------------10-|
A|---------------------------|
E|---------------------------|

E|-----------------------------------------------|
B|-11b13---11p10-11b13-b13--13r11p10-11-10----10-|
G|-----------------------------------------12----|
D|-----------------------------------------------|
A|-----------------------------------------------|
E|-----------------------------------------------|
                 *
E|-------------|-------------------------------|
B|-11-10-------|-------------------------------|
G|-------12-10-|-12b14-12-14-12-14-12-14p12-10-|
D|-------------|-------------------------------|
A|-------------|-------------------------------|
E|-------------|-------------------------------|

E|----------------------------------|
B|----------------------------------|
G|----------------------------------|
D|----------------------------------|
A|-10-12p10-8---10/12-10h12p10h12---|
E|-------------------------------10-|

E|----------------------------------------|
B|----------------------------------------|
G|--10h12p10-10-10h12p10-10-10h12p10-10~~-|
D|----------------------------------------|
A|----------------------------------------|
E|----------------------------------------|

E|------------------------|-20-20-20-20-20-20-20-20-|
B|-b15-b15-b15-b15-b15~~~-|-22-22-22-22-22-22-22-22-|
G|------------------------|-------------------------|
D|------------------------|-------------------------|
A|------------------------|-------------------------|
E|------------------------|-------------------------|

Интересные статьи

Собчак снова опозорила Волочкову
2011-12-04
Всем известно о давнем соперничестве между скандальной телеведущей Ксенией Собчак и балериной Анастасией Волочковой, которое видимо закончится не скоро.
> читать полностью

1 - Сайт содержит тексты песен, аккорды, табулатуры