Все песни

Все исполнители

Death On Two Legs

Автор: Queen

43" H H H                H  H  H  H  H
|--14-14-------|--14>>>|-14-14-14-14-14-------|
|-------14-----|-------|---------------(0)----|
|---------11---|-------|------------------11v-|
|--------------|-------|----------------------|
|--------------|-------|----------------------|
|--------------|-------|----------------------|

48"
|------------------------|----------------------------|
|------------------------|----------------------------|
|------------------------|----------------------------|
|-9v-------9-8v------7---|-6---(4)--0-4-5----0-4__/13-|
|--------9---------9-----|---------2------------------|
|------------------------|----------------------------|

F# G F#

55"
|----------------------14-15-17-15h17p15-14-15-14h15p14----14----15--------|
|-17b19-----14--15--17----------------------------------17----17----18b20v-|
|--------------------------------------------------------------------------|
|--------------------------------------------------------------------------|
|--------------------------------------------------------------------------|
|--------------------------------------------------------------------------|

|-17--------------------------------------------------------------|
|------15--14--15v------14--15--17--b19_rbrp1515-14-15-b17___r-14-|
|-----------------------------------------------------------------|
|-----------------------------------------------------------------|
|-----------------------------------------------------------------|
|-----------------------------------------------------------------|

|----------------------------------|
|-15-14h15p14---14-----------------|
|------------------16-15-----------|
|------------------------17-16vv---|
|----------------------------------|
|----------------------------------|

1`14"
|------------------------|----------------|----|
|------------------------|-10--10--10--10-|----|
|------------------------|-11--11--11--11-|-0/-|
|-5------4---..4-4-4-4-/-|-12--12--12--12-|-/0-|
|-5------4---..4-4-4-4-/-|-12--12--12--12-|----|
|-3------2---..2-2-2-2---|-10--10--10--10-| 2X |

G C

1`33"
|------------------------|--------------------------|
|------------------------|--------------------------|
|------------------------|--------------------------|
|-9v-------9-8v------7---|-6---(4)--0-4-5___7p5p0-4-|
|--------9---------9-----|---------2----------------|
|------------------------|--------------------------|

| H  H  H               H H
|-14-14-14-----|-------14-14v|
|--------------|-------------|
|----------11v-|-11-11-------|
|--------------|-------------|
|--------------|-------------|
|--------------|-------------|


|------------------------|
|------------------------|
|------------------------|
|-9v-------9-8v------7---|
|--------9---------9-----| A xxxx
|------------------------|

1`46"        xxx
|--------------------------------------------|
|--------------------------------------------|
|-2--------------3--------3---------------4--|
|-0--------------4--------4-----------0---4--|
|-------/5---30--4--------4------2--------2--|
|--------------4-2----00-02-------------0----|

1`56
|---------------------------2----------2----------------|
|--2--------2-2---2---------3----------3-----3----------|
|--2--------2-2---2---------2----------2-----4-----3----|
|--2--------2-2---2---------0----------0-----4-----4----|
|--0--------0-0---0-------0----------0-------2-----4----|
|0------2-3-----------2-3--------2-3---------------2----|

|-------------------------------------------------------|
|-------------------------2-------2----------3----------|
|-------------4-----4-----2-------2----------2----------|
|-4-----4-----4-----4-----2-------2----------0----------|
|-4-----4-----2-----2-----0-------0--------0----------0-|
|-2-----2----------2----------2-3------2-3--------2-3---|

2`23"                             trem.
|--------------------------------------|
|-trem---5-4-3-2-----------------------|
|-6rr2-----------5-4-2-----------------|
|----------------------4-2-------------|
|--------------------------4-3-2-0////-|
|--------------------------------------|

2`31"
|--------------------------------------------------------------------2---|
|----3-------------------------------------------------------------3---3-|
|----2-------2----------------------------2----------------------2-------|
|-9-0-----4-------0-2-----------0------4-------0-2------------0----------|
|--------------4-------2---0---4------------4-------2----0---4-----------|
|------------------------------------------------------------------------|

|-------------------------------------------------|
|-------------------------------------------------|
|---2---------------------------------------------|
|-4-------0-2-------------------------------------|
|-----4-------2---4-5-0---2-4-----0-2-------------|
|-----------------------------3-------0-2--220-2--|

2`31"
|-2------------------------------------------------------------|
|-3--------3-5/7------------------7----------------------------|
|-2----------------7-9-b11--9b11---9p7-7--2------7---7---9-b11-|
|-0----4h5----/7----------------------7---------7__-7----------|
|--------------------------------------------4/5---------------|
|--------------------------------------------------------------|
                                          tr
|----------7--------------------------------------------------------|
|-----11----11----------------------------7v------------------------|
|----------------7---10r9p7-9p7-----7---9---------7-9b11-vr9-7-9v---|
|-2/7---------------------------9p7-------------7-------------------|
|-------------------------------------------------------------------|
|-------------------------------------------------------------------|

|-----------------|
|-----------------|
|-----------------|
|-7h9-9p7---------|
|---------9p7-9---|
|-----------------|

2`53"                   trem.
|--------------------------|-10--10--10--10-|----|
|--------------------------|-10--10--10--10-|----|
|--------------------------|-11--11--11--11-|-0/-|
|-5-->>>>--3---------------|-12--12--12--12-|-/0-|
|-5-->>>>----5-3-1-4--xx0--|-12--12--12--12-|----|
|-3----------------2-------|-10--10--10--10-| 2X |

G C
|------------------------|-------------------------------|
|------------------------|----------------------------6/7|
|------------------------|----------------------------6/7|
|-9v-------9-8v------7---|-6---(4)--0-4-5----0-4---------|
|--------9---------9-----|---------2---------------------|
|------------------------|-------------------------------|
         H          H  H  H  H  H  H  H
|-------19b21r19-|-14-14-14-14-14-14-14----|
|----15----------|-------------------------|
|-16-------------|----------------------11-|
|----------------|-------------------------|
|----------------|-------------------------|
|----------------|-------------------------|

|------------------------|
|------------------------|
|------------------------|
|-9v-------9-8v------7---|
|--------9---------9-----| A D xxxx F# Bm A D
|------------------------|

Интересные статьи

Собчак снова опозорила Волочкову
2011-12-04
Всем известно о давнем соперничестве между скандальной телеведущей Ксенией Собчак и балериной Анастасией Волочковой, которое видимо закончится не скоро.
> читать полностью

1 - Сайт содержит тексты песен, аккорды, табулатуры