Все песни

Все исполнители

Dear Friends

Автор: Queen

E|---------10--9-7---5-----|-5---10---14---14-12---10----9-----|
B|-7--10---10----8---5---7-|-7---7----10------10---10-9-10-----|
G|-7--11---11----7---7-6-7-|-7---7----11-------9----9----9-----|
D|-7--12---12------------7-|--------7-12------11----9----7-----|
A|-5---9--------10-9-7---5-|-5-5-9---------------------------0-|
D|-------------------------|-----------------------------------|

E|-2---0---3---2-----------------0---0---2---2---0---2---3-|
B|-3---3---3---3---3---3---3-----3---3---3---3---3---3---2-|
G|-2---2---4---2---4---2---4-----2---2---2---2---2---2---2-|
D|-0---------------5---4---5---2---0---0---0---0-----------|
A|-----4---2---0-----------------------------------0---0-0-|
D|-----------------5---4---2-------------------------------|

E|----------10-9-------7---5---------|
B|-7---10---10---12-10-8---5---7-----|
G|-7----7---11---------7---7-6-7-----|
D|-7------7-12-----------------7-----|
A|---5--9-------------10-9-7---5-----|
D|-0-------------------------------0-|

E|-5---10---14---14-12---10----9-----|
B|-7---7----10------10---10-9-10-----|
G|-7---7----11-------9----9----9-----|
D|--------7-12------11----9----7-----|
A|-5-5-9---------------------------0-|
E|-----------------------------------|

E|-2---0---3---2-----------------------------------------------|
B|-3---3---3---3---3---3---3-----2---2---0---2---0---3---3-----|
G|-2---2---4---2---4---2---1-----2---2---2---2---0---4---2-----|
D|-0---------------5---4---2-----2---2---2---2---0---5---4-----|
A|-----4---2-----------------------0---0---0---0---------5-----|
D|-------------4---5---4---2---------------------5-4-2-------0-|

Интересные статьи

Собчак снова опозорила Волочкову
2011-12-04
Всем известно о давнем соперничестве между скандальной телеведущей Ксенией Собчак и балериной Анастасией Волочковой, которое видимо закончится не скоро.
> читать полностью

1 - Сайт содержит тексты песен, аккорды, табулатуры