Все песни

Все исполнители

Dead On Time

Автор: Queen

E|---------|---------|-------|
B|--7b8----|-12b13---|-15b16-|
G|--7b9----|-12b14---|-13b14-|
D|-10b11---|-11b12---|-15b16-|
A|-11b12---|-11b12---|-13b14-|
E|---------|---------|-------|

E|-------------------------------------------------------------|
B|-------------------------------------------------------------|
G|----------------------42b2--------------------------4542-----|
D|------------------------4-42-2-------42-2-2-------------42---|
A|-0--------------------------4-420------4---432020---------420|
E|--2-22-2202222-220222x-----------2-20------------202---------|

E|----    Riff A   -----------------|------------|
B|----------------------------------|------------|
G|-----------------------b5_r42-----|-0/---------|
D|----42-2-2---------242-------42---|-/0-...2----|
A|------4---432020---------------420|--------432-|
E|2-2-------------2-2---------------|------------|

E|-------------------------------------------------------------|
B|-2-2-3p2--2---3p2--2---3p2-----------------------------------|
G|-2-2-2----2---2----2---2--------------------------b5_r42-----|
D|-2-2-4p2--2---4p2--2---4p2-----42-2-2---------242-------42---|
A|-0-0-0----0---0----0---0---------4---432020---------------432|
E|---------------------------222-------------222---------------|

E|--------------------|
B|--------------------|
G|-0/-----------------|
D|-/0------242-2--3-4-|
A|------------4-------|
E|---...222-----------|

 A E A E A(sus4)
 A E(VII) D B A
 Riff A
 A E(VII) D B A#
 A E(VII) D   B   F#

E|---------------------------------|
B|---------------------------------|
G|---------------------------------|
D|---------------------------------|
A|-----------------02-22-220-------|
E|-02222-220222220----------2222222|

E|---------------------------------|
B|---------------------------------|
G|---------------------------------|
D|---------------------------------|
A|----------------02222-220--------|
E|02-2222202222222---------2-22-22-|

E|-----------------|-------------------------------|
B|-----------------|-------------------------------|
G|-----------------|-------------------------------|
D|-----------------|-------------------------------|
A|-----------------|-2222-22-2222222-222---2222-2--|
E|-0222222202222222|2-------2-------2---2-2------2-|

 solo1
E|-45424242--------------------------------------------------|
B|---------5252525252423232----------------------------------|
G|-------------------------54242---2-----------2b--42--2-----|
D|------------------------------42---------2424--4---4---424-|
A|--------------------------------4-4303404------------------|
E|-----------------------------------------------------------|

E|--------------2-22-----------------4----|
B|-252-25252-252--2-34-47--4-47--47-7-747-|
G|----5-----5----------4--7-----7-4-------|
D|----------------------------------------|
A|----------------------------------------|
E|----------------------------------------|

 solo2
E|-----------------|
B|-5252------------|
G|-----54242-------|
D|----------42-2-4-|
A|------------4----|
E|-----------------|

 solo3
E|------------------------10-------------------11-----------|
B|-8b10----10b12----13b15----13p10------14b16-----14p11-----|
G|---------------------------------10-------------------11--|
D|----------------------------------------------------------|
A|----------------------------------------------------------|
E|----------------------------------------------------------|

E|---------12-------------------13------------------|
B|--15b17-----15p12------16b18-----16p13------17b19-|
G|------------------12-------------------13---------|
D|--------------------------------------------------|
A|--------------------------------------------------|
E|--------------------------------------------------|

Интересные статьи

Собчак снова опозорила Волочкову
2011-12-04
Всем известно о давнем соперничестве между скандальной телеведущей Ксенией Собчак и балериной Анастасией Волочковой, которое видимо закончится не скоро.
> читать полностью

1 - Сайт содержит тексты песен, аккорды, табулатуры