Все песни

Все исполнители

Crazy Little Thing Called Love (2 вариант)

Автор: Queen

INTRO:

E|---|-2-2-3-2---2-2---|-2-2-3-2---2-2---|-2-2-3-2---2-2---|
B|---|-3-3-3-3---3-3---|-3-3-3-3---3-3---|-3-3-3-3---3-3---|
G|4:-|-2-2-2-2---2-2-2-|-2-2-2-2---2-2---|-2-2-2-2---2-2-2-|
D|4:-|-0-0-0-0---0-0-0-|-0-0-0-0---0-0-0-|-0-0-0-0---0-0-0-|
A|---|---------------0-|---------------0-|---------------0-|
E|---|-----------------|-----------------|-----------------|

E|2-2-3-2---2-2---|
B|3-3-3-3---3-3---|
G|2-2-2-2---2-2-0-|
D|0-0-0-0---0-0-0-|
A|--------------0-|
E|----------------|

1st, 2nd | 5th Verses:

This thing ...
This thing (this thing) ...
This thing ...

(with fill 1 3rd time)
E|-2-2-3-2-2-2---|-2-2-3-2-2-2---|-3-3-3-3-3-3-3-|-------------|
B|-3-3-3-3-3-3---|-3-3-3-3-3-3---|-3-3-3-3-3-3-3-|-1-x-1-x-----|
G|-2-2-2-2-2-2-2-|-2-2-2-2-2-2---|-0-0-0-0-0-0-0-|-0-x-0-x-0-x-|
D|-0-0-0-0-0-0-0-|-0-0-0-0-0-0-0-|-0-0-2-0-0-0-0-|-2-x-2-x-0-x-|
A|-------------0-|-------------0-|---------------|-3-x-3-x-2---|
E|---------------|---------------|-3-3---3-3-3-3-|-------------|

                                              X=Go to Coda in v5
 (QB) (with fill 2 3rd time)
E|---|                    -|-2-2-2-2-2-2-2---|-----------------|
B|---|                    -|-3-3-3-3-3-3-3-0-|-3-3-3-3-5-5-5-5-|
G|---| Repeat last 4 bars -|-2-2-2-2-2-2-2-0-|-3-3-3-3-5-5-5-5-|
D|---|                    -|-0-0-0-0-0-0-0-0-|-3-3-3-3-5-5-5-5-|
A|---|                    -|---------------0-|-1-1-1-1-3-3-3-3-|
E|3^-|                    -|-----------------|-----------------|

E|-2-2-2-2-2-2-2-2-2-2-|-2--------|-2-2-2-2-2-2-2-2-|-2-|
B|-3-3-3-3-3-3-3-3-3-3-|-3--------|-3-3-3-3-3-3-3-3-|-3-|
G|-2-2-2-2-2-2-2-2-2-2-|-2-------*|-2-2-2-2-2-2-2-2-|-2-|
D|-0-0-0-0-0-0-0-0-0-0-|-0-------*|-0-0-0-0-0-0-0-0-|-0-|
A|---------------------|----------|-----------------|---|
E|---------------------|----------|-----------------|---|

BRIDGE:

baby....

E|-3-3-3-3---3-3-3-|-3-3-3-3---3-3-3-|---------------3-|
B|-3-3-3-3---3-3-3-|-3-3-3-3---3-3-3-|-1---1---1-1-1-3-|
G|-0-0-0-0---0-0-0-|-0-0-0-0---0-0-0-|-0---0---0-0-0-0-|
D|-0-0-0-0---0-0-0-|-0-0-0-0---0-0-0-|-2---2---2-2-2-0-|
A|-2-2-2-2---2-2-2-|-2-2-2-2---2-2-2-|-3---3---3-3-3-2-|
E|-3-3-3-3---3-3-3-|-3-3-3-3---3-3-3-|---------------3-|

E|---3-3-3---3-3-3-|-----------------|-----------------|
B|---3-3-3---3-3-3-|-3-3-3-3---3-3-3-|-3-3-3-3---3-3-3-|
G|---0-0-0---0-0-0-|-3-3-3-3---3-3-3-|-3-3-3-3---3-3-3-|
D|---0-0-0---0-0-0-|-3-3-3-3---3-3-3-|-3-3-3-3---3-3-3-|
A|---2-2-2---2-2-2-|-1-1-1-1---1-1-1-|-1-1-1-1---1-1-1-|
E|---3-3-3---3-3-3-|-----------------|-----------------|

  hot|cold fever |  leaves me in ...        (x=Drum fills)
.                 ---3---   x xxx
|-0---0-----------|-1---------------|-----------------|
|-0---0---2---2---|-1---------------|-----------------|
|-1---1---2---2---|-2---------------|-----------------|
|-2---2---2---2---|-3---------------|-----------------|
|-2---2---0---0---|-----------------|---5--4--3-------|
|-0---0-----------|-----------------|-----------------|

x--3---   x xxx   ---3--  ---3--          I gotta be
G1
E|-----------------|-0-0--0--0-0--0--|---------------|
B|-----------------|-0-0--0--0-0--0--|-2-------------|
G|-----------------|-1-1--1--1-1--1--|-2-------------|
D|-----------------|-2-2--2--2-2--2--|-2-------------|
A|-----------------|-2-2--2--2-2--2--|-0-------------|
E|---5--4--3-------|-0-0--0--0-0--0--|-----3---2---0-|
G2
E|-----------------|-----------------|---------------|
B|-----------------|-.-.--.--.-.--.--|---------------|
G|-----------------|-9-9--9--9-9--9--|-.-.-----------|
D|-----------------|-----------------|-7-7-5---------|
A|-----------------|-----------------|---------9---7-|
E|-----------------|-----------------|---------------|

3rd Verse:

  cool..

E|-2-2-3-2---2-2---|-2-2-3-2---2-2---|-3-3-3-3---3-3-3-|
B|-3-3-3-3---3-3---|-3-3-3-3---3-3---|-3-3-3-3---3-3-3-|
G|-2-2-2-2---2-2-2-|-2-2-2-2---2-2---|-0-0-0-0---0-0-0-|
D|-0-0-0-0---0-0-0-|-0-0-0-0---0-0-0-|-0-0-2-0---0-0-0-|
A|---------------0-|---------------0-|-----------------|
E|-----------------|-----------------|-3-3---3---3-3-3-|

E|-----------------|-----------------|-------13s-|
B|-----------------|-----------------|-------12s-|
G|-----------------|-----1210(tr11)--|-----------|
D|-----------------|-----------------|-----------|
A|-----------------|-----------------|-----------|
E|-----------------|-----------------|-----------|

E|-----------------|-2-2-3-2---2-2---|-2-2-3-2---2-2---|
B|-1-x-1-x---------|-3-3-3-3---3-3---|-3-3-3-3---3-3---|
G|-0-x-0-x-0-x-----|-2-2-2-2---2-2-2-|-2-2-2-2---2-2---|
D|-2-x-2-x-0-x-----|-0-0-0-0---0-0-0-|-0-0-0-0---0-0-0-|
A|-3-x-3-x-2-------|---------------0-|---------------0-|
E|-------------3^--|-----------------|-----------------|

E|-----------------|-----1010-|
B|-----------------|-----1010-|
G|-----------------|----------|
D|-----------------|----------|
A|-----------------|----------|
E|-----------------|----------|

E|-3-3-3-3---3-3-3-|------------------|-2-2-2-2-2--2--2----|
B|-3-3-3-3---3-3-3-|-1-x-1-x----------|-3-3-3-3-3--3--3--0-|
G|-0-0-0-0---0-0-0-|-0-x-0-x-0-x------|-2-2-2-2-2--2--2--0-|
D|-0-0-2-0---0-0-0-|-2-x-2-x-0-x------|-0-0-0-0-0--0--0--0-|
A|-----------------|-3-x-3-x-2--------|------------------0-|
E|-3-3---3---3-3-3-|-------------3^---|--------------------|

E|-----------------|-------------10-10|---------13-12p10-10-|
B|-----------------|--------/1010-10--|----------------13---|
G|-----------------|------------------|---------------------|
D|-----------------|------------------|---------------------|
A|-----------------|------------------|---------------------|
E|-----------------|------------------|---------------------|

E|---------------------|-2-2-2-2-2-2-2-2-|-2-|
B|-3-3-3--3-5----5-5-5-|-3-3-3-3-3-3-3-3-|-3-|
G|-3-3-3--3-5----5-5-5-|-2-2-2-2-2-2-2-2-|-2-|
D|-3-3-3--3-5----5-5-5-|-0-0-0-0-0-0-0-0-|-0-|
A|-1-1-1--1-3----3-3-3-|-----------------|---|
E|---------------------|-----------------|---|

E|---------------------|-----------------|---8/101010101010-|
B|-1312-1110-----------|-----------------|---8/101010101010-|
G|----------13p121012--|-----------------|------------------|
D|-------------------12|-----------------|------------------|
A|---------------------|-----------------|------------------|
E|---------------------|-----------------|------------------|

Solo:

E|--------------------|-----------------|-2--x-2-x-3-x-3-x-|
B|-3-3-3-3------3-3-3-|-3-3-3-3---3-3-3-|-3--x-3-x-3-x-3-x-|
G|-3-3-3-3------3-3-3-|-3-3-3-3---3-3-3-|-2--x-2-x-0-x-0-x-|
D|-3-3-3-3------3-3-3-|-3-3-3-3---3-3-3-|-0--x-0-x-0-x-0-x-|
A|-1-1-1-1------1-1-1-|-1-1-1-1---1-1-1-|----------2-x-2-x-|
E|--------------------|-----------------|----------3-x-3-x-|

E|--------------------|-----------13----|--8/1010101010-----|
B|-13^-13^-13^rp111311|~~~~~----13^-----|--8/10----10--1210-|
G|--------------------|-----------------|-------------------|
D|--------------------|-----------------|-------------------|
A|--------------------|-----------------|-------------------|
E|--------------------|-----------------|-------------------|

E|-2-2-3--2-2-2-2-2-|--------------------|-----------------|
B|-3-3-3--3-3-3-3-3-|-3-3-3-3------3-3-3-|-3-3-3-3---3-3-3-|
G|-2-2-0--2-2-2-2-2-|-3-3-3-3------3-3-3-|-3-3-3-3---3-3-3-|
D|-0-0-0--0-0-0-0-0-|-3-3-3-3------3-3-3-|-3-3-3-3---3-3-3-|
A|-----2------------|-1-1-1-1------1-1-1-|-1-1-1-1---1-1-1-|
E|-----3------------|--------------------|-----------------|

E|----------1010----|---13--13-----------|-------13------10/-|
B|------10121010--13^sss--13^-13^rp111311|~~~~~13^-------10/-|
G|-111012-----------|--------------------|-----------------|-|
D|------------------|--------------------|-----------------|-|
A|------------------|--------------------|-----------------|-|
E|------------------|--------------------|-----------------|-|

E|-0---0------------|-1------------------|-----------|
B|-0---0---2----2---|-1------------------|-----------|
G|-1---1---2----2---|-2------------------|-----------|
D|-2---2---2----2---|-3------------------|-----------|
A|-2---2---0----0---|--------------------|---5--4--3-|
E|-0---0------------|--------------------|-----------|

E|/12121012---------|-.---.--------------|----------|
B|/12------13^10----|-10--10--12^rp101210|~~~~~~~~~-|
G|--------------119-|--------------------|----------|
D|------------------|--------------------|----------|
A|------------------|--------------------|----------|
E|------------------|--------------------|----------|

x--3---   x xxx   ---3--- ---3--- I gotta be
G1
E|-----------------|-0-0--0--0-0--0--|-.-|
B|-----------------|-0-0--0--0-0--0--|-2-|
G|-----------------|-1-1--1--1-1--1--|-2-|
D|-----------------|-2-2--2--2-2--2--|-2-|
A|-----------------|-2-2--2--2-2--2--|-0-|
E|---5--4--3-------|-0-0--0--0-0--0--|---|

4th Verse:

cool ... (same words as v3)

(UNACCOMPANIED - Hand Claps on the off beat)

(Go back for v5 before going to Coda)

Coda / Out-Chorus:

  Crazy little thing called love ...
E|-----------------|-2-2-2-2-2-2-2-2-|-----------------|
B|-3-3-3-3-5-5-5-5-|-3-3-3-3-3-3-3-3-|-3-3-3-3-5-5-5-5-|
G|-3-3-3-3-5-5-5-5-|-2-2-2-2-2-2-2-2-|-3-3-3-3-5-5-5-5-|
D|-3-3-3-3-5-5-5-5-|-0-0-0-0-0-0-0-0-|-3-3-3-3-5-5-5-5-|
A|-1-1-1-1-5-5-5-5-|-----------------|-1-1-1-1-5-5-5-5-|
E|-----------------|-----------------|-----------------|

E|-----------------|----------------|
B|-----------------|-----12------.--|
G|-----------------|-----1210(tr11)-|
D|-----------------|-------------12-|
A|-----------------|----------------|
E|-----------------|----------------|

E|-2--2-2-2-2-2-2-2-|-----------------|-2-2-2-2-2-2--2--2-|
B|-3--3-3-3-3-3-3-3-|-3-3-3-3-5-5-5-5-|-3-3-3-3-3-3--3--3-|
G|-2--2-2-2-2-2-2-2-|-3-3-3-3-5-5-5-5-|-2-2-2-2-2-2--2--2-|
D|-0--0-0-0-0-0-0-0-|-3-3-3-3-5-5-5-5-|-0-0-0-0-0-0--0--0-|
A|------------------|-1-1-1-1-5-5-5-5-|-------------------|
E|------------------|-----------------|-------------------|

E|--8/101010--101010|-----------------|---------1312p10-10-|
B|--8/1010--10101010|-----------------|----------------13--|
G|------------------|-----------------|--------------------|
D|------------------|-----------------|--------------------|
A|------------------|-----------------|--------------------|
E|------------------|-----------------|--------------------|

E|-----------------|-2-2-2-2-2-2-2-2-|-----------------|
B|-3-3-3-3-5-5-5-5-|-3-3-3-3-3-3-3-3-|-3-3-3-3-5-5-5-5-|
G|-3-3-3-3-5-5-5-5-|-2-2-2-2-2-2-2-2-|-3-3-3-3-5-5-5-5-|
D|-3-3-3-3-5-5-5-5-|-0-0-0-0-0-0-0-0-|-3-3-3-3-5-5-5-5-|
A|-1-1-1-1-5-5-5-5-|-----------------|-1-1-1-1-5-5-5-5-|
E|-----------------|-----------------|-----------------|

E|-10--------------|-----------------|--------|
B|---13------------|-----------------|--------|
G|-----------------|-----121012x-10^-|--------|
D|-----------------|---12----------12|~~~~~~~-|
A|-----------------|-----------------|--------|
E|-----------------|-----------------|--------|

E|-2--2-2-2-2-2-2-2-|-----------------|-2-2-2-2-2-2-2-2-|
B|-3--3-3-3-3-3-3-3-|-3-3-3-3-5-5-5-5-|-3-3-3-3-3-3-3-3-|
G|-2--2-2-2-2-2-2-2-|-3-3-3-3-5-5-5-5-|-2-2-2-2-2-2-2-2-|
D|-0--0-0-0-0-0-0-0-|-3-3-3-3-5-5-5-5-|-0-0-0-0-0-0-0-0-|
A|------------------|-1-1-1-1-5-5-5-5-|-----------------|
E|------------------|-----------------|-----------------|

E|--8/10----10-----|-----------------|-1313-13-1212--10-|
B|--8/10----10-----|-----------------|-1313-13-121213^--|
G|-----------------|-----------------|------------------|
D|-----------------|-----------------|------------------|
A|-----------------|-----------------|------------------|
E|-----------------|-----------------|------------------|

E|------------------|-2-2-2-2-2---2-2-2-| (Fade out)-|
B|-3--3-3-3-5-5-5-5-|-3-3-3-3-3---3-3-3-|------------|
G|-3--3-3-3-5-5-5-5-|-2-2-2-2-2---2-2-2-|------------|
D|-3--3-3-3-5-5-5-5-|-0-0-0-0-0---0-0-0-|------------|
A|-1--1-1-1-5-5-5-5-|-------------------|------------|
E|------------------|-------------------|------------|

E|------------------|--------------------|
B|-13^13^~~~--------|--------------------|
G|------------------|-----10^-------10^--|
D|------------------|---------12p10---12-|
A|------------------|-------------12-----|
E|------------------|--------------------|

xxxxxxxxxxxxxxxxxxxxxxxxxxxxxxxxxxxxxxxxxxxxxxxxxxxxxxxxxxxxxxx

Fill 1 (G2):

E|---8/1010-------|--8/10--1010-----|-------10-|
B|---8/1010-------|--8/10--1010-----|-------10-|
G|----------------|-----------------|-------10-|
D|----------------|-----------------|----------|
A|----------------|-----------------|----------|
E|----------------|-----------------|----------|

Fill 2 (G2):
E|------------------|------------------|----------|
B|------------------|------------------|----------|
G|-----10^----------|---12^----1210----|----------|
D|---12---12~~~~----|--------------1212ssssss9-12-|
A|------------------|------------------|----------|
E|------------------|------------------|----------|

E|-----------------|----------|
B|-----------------|----------|
G|----------7-97-7~|~~~~~~~~~-|
D|------5-/9-------|----------|
A|-----------------|----------|
E|-----------------|----------|

Интересные статьи

Собчак снова опозорила Волочкову
2011-12-04
Всем известно о давнем соперничестве между скандальной телеведущей Ксенией Собчак и балериной Анастасией Волочковой, которое видимо закончится не скоро.
> читать полностью

1 - Сайт содержит тексты песен, аккорды, табулатуры