Все песни

Все исполнители

Coming Soon

Автор: Queen

G D G D D C G D
A E C G A E
D A D E...

 fill 1, 3
E|---------------------------------------|
B|---------------------------------------|
G|-------9-9-----------------------------|
D|-------9-9-------12---------11-------9-|
A|-10-11-----10-11------10-11----10-11---|
E|---------------------------------------|

 fill 2
E|---------------------------------------|
B|---------------------------------------|
G|-------9-9-----------------------------|
D|-------9-9---------12----11---9--------|
A|-10-11-------10-11----11----x---10-9-7-|
E|---------------------------------------|

 fill4
E|---------------------------------------|
B|-----------------------------9---------|
G|-------9-9--------------------119811-9-|
D|-------9-9-------12----11--------------|
A|-10-11-----10-11----11----9------------|
E|---------------------------------------|

 C D# G
 A E C G A E D

 Solo
E|-------5---------5------------------------------------|
B|-------5-----------------------------------8b10---b9--|
G|-7b9-------7b9-------7p5----5b6-5bvvvv----------------|
D|------------------------------------------------------|
A|------------------------7-----------------------------|
E|------------------------------------------------------|

E|--------------------------|
B|--5---b10-b10-b10r9-5-5-/-|
G|--------------------------|
D|--------------------------|
A|--------------------------|
E|--------------------------|

E|-------8----------------------------------------------|
B|---------118118-----------11b13---11-8---------11b13--|
G|-10b12---------11108108b---------------8b-------------|
D|------------------------------------------10----------|
A|------------------------------------------------------|
E|------------------------------------------------------|

E|------------------(0)-------------|
B|--b12---8---11b13-b13-b12_r-8-8-/-|
G|----------------------------------|
D|----------------------------------|
A|----------------------------------|
E|----------------------------------|

E|----15--15--15--15--15--15--15--15---------------------|
B|-15b17-b17-b17-b17-b17-b17-b17-b17-b17___r15p1315--13b-|
G|-------------------------------------------------------|
D|-------------------------------------------------------|
A|-------------------------------------------------------|
E|-------------------------------------------------------|

E|-15b17-b17-b17-b17___r15p12------|
B|---------------------------15b17-|
G|---------------------------------|
D|---------------------------------|
A|---------------------------------|
E|---------------------------------|

E|-----------------------------------------------------------|
B|-15b17___r151215121512151214121312--12------------14b15vvv-|
G|----------------------------------15--151412--12-----------|
D|--------------------------------------------14-------------|
A|-----------------------------------------------------------|
E|-----------------------------------------------------------|

Интересные статьи

Собчак снова опозорила Волочкову
2011-12-04
Всем известно о давнем соперничестве между скандальной телеведущей Ксенией Собчак и балериной Анастасией Волочковой, которое видимо закончится не скоро.
> читать полностью

1 - Сайт содержит тексты песен, аккорды, табулатуры