Все песни

Все исполнители

Brighton Rock

Автор: Queen

9"
E|-------------------|
B|-------------------|
G|-16----------------|
D|-16----------------|
A|-16----------------|
E|-14-x-x-x-x-x-x...-|

  14"
E|--------------------------|----------------------------------|
B|--------------------------|----------------------------------|
G|-17-17-x-17--x-17--17--17-|-x-17--17--x-17--x-17--x-17--x-17-|
D|-17-17-x-17--x-17--17--17-|-x-17--17--x-17--x-17--x-17--x-17-|
A|-17-17-x-17--x-17--17--17-|-x-17--17--x-17--x-17--x-17--x-17-|
E|-15-15-x-15--x-15--15--15-|-x-15--15--x-15--x-15--x-15--x-15-|

E|-------------------------------------|
B|-------------------------------------|
G|-x-17--x-17--x-17--x-17--x-17--x-17--|
D|-x-17--x-17--x-17--x-17--x-17--x-17--|
A|-x-17--x-17--x-17--x-17--x-17--x-17--|
E|-x-15--x-15--x-15--x-15--x-15--x-15--|

E|---------------------------------------|
B|---------------------------------------|
G|----------17---------------------------|
D|----------17---------------------------|
A|----------17---------------------------|
E|x-x-...-x-15-x-........slide down to 1-|

E|---------------------------------------|
B|-----------------9------------11--9-11-|
G|----------------10------------11--9-11-|
D|-----11-11-11---11---x-x-11---11--9-11-|
A|-x-x-11-11-11---11---x-x--9----9--9--9-|
E|sl.up-9--9--9----9---x-x---------------|

E|-----------------------------------|
B|------------------9---9-11-11-9-11-|
G|-----------------10---9-11-11-9-11-|
D|-11-9------------11---9-11-11-9-11-|
A|--9-9-11-11-11---11---9--9--9-9--9-|
E|--9-9--9--9--9----9----------------|

E|-----------------------------------------|
B|-----------------9----9-11-11-x-11-11-11-|
G|----------------10----9-11-11-x-11-11-11-|
D|-x-x------------11----9-11-11-x-11-11-11-|
A|-x-x-11-11-11---11----9--9--9-x--9--9--9-|
E|-x-x--9--9--9----9-----------------------|

 B E B E B E F#
 B E B E B E F#

E|----------------------------------|
B|----------------------------------|
G|---------9---6---6-------6-4-9-/--|
D|-------7-9---6---6---6---6-4-9-/--|
A|-------7-7---6---4---3------2-7-/-|
E|-5-------0--------------------0---|

 C# F# C# F#
 B E B E B E F#
 B E B E B E F#

E|-------------------------------------|
B|-------------------7b9--7b9----------|
G|---------9----96------------6-4--9---|
D|---------9-------------------6-4--9--|
A|---------7-------------------4-2--7--|
E|-5-------0-------------------------0-|

E|----------0------------------2--2--0----------2----2-|
B|----------0------2-----2--0--2--2--0-----5----2----2-|
G|-6---6-4--1------2-----2--1--2--2--1-----6----3----3-|
D|-6---6-4--2------2-----2--2--2--2--2-----6----4----4-|
A|-4---4-2--2------0-----------0--2--2-----4----4------|
E|----------0---------------------0--0----------2------|

E|----------------------------|----------------------|-----|
B|--4--4--4--4--4--4--4--4--2-|--2--2--2--2--2--2-0--|-----|
G|--4--4--4--4--4--4--4--4--2-|--2--2--2--2--2--2-1--|--0/-|
D|--4--4--4--4--4--4--4--4--2-|--2--2--2--2--2--2-2--|--/0-|
A|--2--2--2--2--2--2--2--2--0-|--0--0--0--0--0--0-2--|-----|
E|----------------------------|-------------------0--|-----|

E|---------------------------|
B|--2--2--2--2--2--2--2--2-3-|
G|--2--2--2--2--2--2--2--2-4-|
D|--2--2--2--2--2--2--2--2-5-|
A|--0--0--0--0--0--0--0--0-5-|
E|-------------------------3-|

E|-----------------------------------------------------|
B|-----------------------------------------3-0---2---0-|
G|-2b4-r2p0h2p0h2p0------------------0-2---2-1---2---1-|
D|-----------------2p0---------------0-2---2-2---2---2-|
A|--------------------2p0------------0-0---0-2---0---2-|
E|-----------------------3b-3b----0----------0---0---0-|

E|---------12--------------------------------------------------|
B|-15b17------15-1211-15b17r15p12----12-------------------12b--|
G|---------------------------------15----15-14-12-14-12----12b-|
D|------------------------------------------------------14-----|
A|-------------------------------------------------------------|
E|-------------------------------------------------------------|

E|--------------------------------------------------------|
B|--------------------------------------------------------|
G|----------12b--12----------------------------------7--7-|
D|-14-12----12b--12---------------------------6------5--5-|
A|-------14---------14--13--12--11--12--------7------7--7-|
E|--------------------------------------000---0----0------|

E|-------12------------------------------------------------|
B|-15b17----15-12-15b17--15-12----12-------------------12b-|
G|-----------------------------15----15-14-12-14-12----12b-|
D|--------------------------------------------------14-----|
A|---------------------------------------------------------|
E|---------------------------------------------------------|

E|-------------------------------------------------------------|
B|------------------------------8-10-8--8-----15---15b17-----3-|
G|----------12b-----------------9-10-8--9-----14---14b14-----4-|
D|-14-12----12b----------------10------10------------------5-5-|
A|-------14-----14-13-12-10----10------10--------------------5-|
E|--------------------------12-8-------8--------------------0--|

E|----------------------------------------------------------|
B|----------------------------------------------------------|
G|-2b4---4r2--0h2p0-----------------------------7---7----74-|
D|------------------2-0---------------------5-7-7---7----74-|
A|----------------------2-1-0---------------5-7-7---7----74-|
E|----------------------------3-0----0--0---5-5-5---5-------|

E|----------------------------------------------------------|
B|----------------------------------------------------------|
G|----------------------------------------------------------|
D|----------------------------------------------------------|
A|-7-7-7-x-5-5-5-x--4-4-4-4-3-3-3-3-2-2-2-2-1-1-1-1-0-0-0-0-|
E|----------------------------------------------------------|

                                                       echo on
                                                              >
E|-------|--------------------|----|---------------------------|
B|-------|-2--2--2--2--2--2-0-|----|--2--2--2--2--2--2--2--2-3-|
G|-------|-2--2--2--2--2--2-1-|-0/-|--2--2--2--2--2--2--2--2-4-|
D|-------|-2--2--2--2--2--2-2-|-/0-|--2--2--2--2--2--2--2--2-5-|
A|-3-----|-0--0--0--0--0--0-2-|----|--0--0--0--0--0--0--0--0-5-|
E|---000-|------------------0-|----|-------------------------3-|

E|---trem down to F# - release -|

E|----------|---------|---------|---------|---------|
B|----------|---------|---------|---------|---------|
G|----------|---------|---------|---------|---------|
D|----------|---------|---------|---------|---------|
A|----------|---------|---------|---------|---------|
E|-h2-2-2-2-|-2-2-2-2-|-2-2-2-2-|-2-2-2-2-|-2-2-2-2-|

E|-------------------------------------------------------------|
B|-------------------------------------------------------------|
G|---------2---------2-------------2-------------2-------------|
D|-4---2-4---2-4-----2-----4-------2-----4-------2-----4-------|
A|-------------------------------------------------------------|
E|--2-2-------2-2-2-2--2-2---2-2-2---2-2---2-2-2---2-2---2-2-2-|

E|---------|---------|-----------|---------|
B|---------|---------|-----------|---------|
G|---------|---------|-5r4-2-----|---------|
D|---------|---------|-------4---|-2---2-4-|
A|---------|---------|---------4-|---4-----|
E|-2-2-2-2-|-2-2-222-|-----------|---------|

E|---------|---------|-------------|
B|---------|---------|-5p2p0-------|
G|---------|---------|-------2b3---|
D|---------|---------|-----------4-|
A|---------|---------|-------------|
E|-2-2-2-2-|-2-2-222-|-------------|

E|---------|---------|-------------|-----------|
B|---------|---------|-5p2p0-------|-----------|
G|---------|---------|-------2b3---|-----------|
D|---------|---------|-----------4-|-4p2---2-4-|
A|---------|---------|-------------|-----4-----|
E|22-222---|---------|-------------|-----------|

E|---------|-----------------------------|
B|---------|-----------------------------|
G|---------|-4p2---2---------------------|
D|---------|-----4---4p2---------4---4---|
A|---------|-------------4-3-2-0---------|
E|-2-------|-----------------------2---2-|

E|--------------|-----------|-----------|----------|
B|-10p9---------|-5p4-------|-1p0-------|----------|
G|-----11---11--|----6---6--|----2---2--|-4p2------|
D|--------------|-----------|-----------|----4---4-|
A|--------------|-----------|-----------|----------|
E|--------------|-----------|-----------|----------|

E|-----------|-----------|---------|-------|
B|-----------|-----------|---------|-------|
G|-----------|-----------|---------|-4---4-|
D|-4p2-------|-----------|---------|-------|
A|----4---4--|-4p2-------|---------|-------|
E|-----------|----4---5--|-5-4-2-2-|-------|

E|-------|-------|------2|4-5-4-2-|---------|------------------|
B|-------|-------|--2-5--|--------|-5-2-----|------------------|
G|-------|----1-2|4------|--------|-----5-4-|-2b3--------------|
D|-------|2-4----|-------|--------|---------|-----4-2----------|
A|4-0-2-4|-------|-------|--------|---------|----------4-3-2-0-|
E|-------|-------|-------|--------|---------|------------------|

E|-------|-------|---------------------------------4-----5-----|
B|-------|-------|------------2-----4----5----7----------------|
G|-------|-------|2-----4--------------------------------------|
D|-------|-------|--------------------4-4--4-4--4-4--4-4---4-4-|
A|-------|-------|---------------------------------------------|
E|2-2-2-2|22222-2|--2-2---2-2---2-2----------------------------|

E|-4-----------------------------------------------------------|
B|-------7-----5-----4-----2-----------------------------------|
G|-----------------------------4-------2-----1-----------------|
D|---4-4---4-4---4-4---4-4-------4!------1-4-------4-----2-----|
A|-------------------------------------------------------------|
E|-----------------------------------------------2---2-2---2-2-|

E|-----------------------------------------|
B|-----------------------------------------|
G|-----------------------------------------|
D|-------------------------4---4-4-4-4-4-4-|
A|-4-----2-----------------4---4-4-4-4-4-4-|
E|---2-2---2-2-5-0-0-4-0-0-2---2-2-2-2-2-2-|

E|---------|---------|-----------|---------|---------|---------|
B|---------|---------|-----------|-2-------|---------|---------|
G|---------|---------|-4p2-------|---4-2-0-|---------|---------|
D|2-2------|4p2------|-----4-2-0-|---------|-4-2-----|---------|
A|----4-2-0|----4-2-0|-----------|---------|-----4-2-|-4-2-0---|
E|---------|---------|-----------|---------|---------|-------3-|

 fade in fade out volume control
E|-----------2-----------------2----------|
B|-----------3-----------------3----------|
G|-----------2-----------------2----------|
D|-4---------0--------4--------0--------4-|
A|-4---------0--------4--------0--------4-|
E|-2------------------2-----------------2-|

 5`45"
  f.i.
E|------7--------------|-------|-------|-------|-------|-------|
B|------10----10-------|-------|-------|-------|-------|-------|
G|------7---------7----|-------|-------|-------|-------|-------|
D|------7------------7-|-2-----|-2-----|-2-----|-2-----|-2-----|
A|------7--------------|-------|-------|-------|-------|-------|
E|-0-------------------|-----0-|-----0-|-----0-|-----0-|-----0-|

E|---------|-0------|-0------|-0-----|
B|-------0-|-----0--|-----0--|-----0-|
G|---------|--------|--------|-------|
D|-2-------|--------|--------|-------|
A|---------|--------|--------|-------|
E|-----0---|--------|--------|-------|

E|-------|---|-7-----|------|------|----------|------|---------|
B|-------|---|----10-|-8--7-|------|----------|------|---------|
G|-------|---|-------|------|-9--7-|----------|----9-|-7-------|
D|-------|-7-|-------|------|------|-9-7------|------|-----7-9-|
A|-----7-|---|-------|------|------|-----10-9-|-7----|---------|
E|-0!----|---|-------|------|------|----------|------|---------|

E|--------|---|-7-----|-------|--------|----------|--------|---|
B|--------|---|----10-|-8---7-|--------|----------|--------|---|
G|-7---9--|-9-|-------|-------|--------|----------|--------|-7-|
D|---9----|---|-------|-------|-----7--|-9-7------|-----7--|---|
A|--------|---|-------|-------|--------|-----10-9-|-7------|---|
E|--------|---|-------|-------|--------|----------|--------|---|

E|-------|-|--------|-------|------10/12|12|-12-14-15-14-12----|
B|-------|-|--------|----7-8|10-12------|--|----------------15-|
G|7------|-|--------|7-9----|-----------|--|-------------------|
D|--9-7--|-|-----7-9|-------|-----------|--|-------------------|
A|-----10|7|7-10----|-------|-----------|--|-------------------|
E|-------|-|--------|-------|-----------|--|-------------------|

E|--------|---------|------------|------------|--------|-------|
B|-12-----|---------|------------|------------|--------|-------|
G|-----14-|-12---11-|------------|------------|--------|-------|
D|--------|---------|-14---12-14-|------------|--------|-------|
A|--------|---------|------------|-14---12-14-|-10---9-|-7---5-|
E|--------|---------|------------|------------|--------|-------|

E|---|--------|---------|---|------|---------|----------|12-12-|
B|---|--------|---------|---|------|---------|-------12-|------|
G|---|--------|---------|---|-9--9-|-9/11-13-|-13/14----|------|
D|---|--------|-------9-|-9-|------|---------|----------|------|
A|-7-|-7/9-11-|-11-12---|---|------|---------|----------|------|
E|---|--------|---------|---|------|---------|----------|------|

E|-16--r1412-|---------|----------|----------|-----------------|
B|-----------|17--1614-|-14--12---|----------|-----------------|
G|-----------|---------|-------14-|-14--1311-|---9--8--6--4--2-|
D|-----------|---------|----------|----------|-----------------|
A|-----------|---------|----------|----------|-----------------|
E|-----------|---------|----------|----------|-----------------|

E|---------------------------|---------|----|-----|------|-----|
B|---------------------------|---------|----|-----|------|-----|
G|-x-------------------------|---------|-0/-|-0/--|--0/--|--0/-|
D|----x--x--x----------------|---------|-/0-|-/0--|--/0--|--/0-|
A|-------------x--2--0-------|---------|----|-----|------|-----|
E|----------------------3--2-|-0-0-0-0-|----|-----|------|-----|

E|---------------------|---------|---------|
B|---------------------|---------|---------|
G|---------------------|---------|---------|
D|-------------5-------|---------|---------|
A|---------5-7---7-----|---------|---------|
E|-0-3-5-7---------0-0-|-0-0-0-0-|-0-0-0-0-|

E|-----------------------------------|
B|-----------------------------------|
G|-----------------------------------|
D|-------------5-------------5-------|
A|---------5-7---7-7-7-7-7-7---7-7-7-|
E|-003-5-7---------------------------|

E|------------------------------------------------------------|
B|------------------------------------------------------------|
G|---------------5--------------------------------------------|
D|---5-----5-----5-----5-----------12----12-14-14-14-14-14-14-|
A|-7---7-7---7-7---7-7---7-7-12/14----14----------------------|
E|------------------------------------------------------------|

E|-------------|----|----|-------------|----|----|-------------|
B|-------------|----|----|-------------|----|----|-------------|
G|-12----------|-0/-|-0/-|-12-13-------|-0/-|-0/-|-12----------|
D|----14-12-14-|-/0-|-/0-|-------12-14-|-/0-|-/0-|-----14---12-|
A|-------------|----|----|-------------|----|----|-------------|
E|-------------|----|----|-------------|----|----|-------------|

E|----------------------------------------------|
B|----------------------------------------12-15-|
G|-12-----------12------------------12-14-------|
D|----14-12-14-----12-14-12-14-12-14------------|
A|----------------------------------------------|
E|----------------------------------------------|

E|-12-14-15-14-12----12----------|
B|----------------15----15-12----|
G|----------------------------14-|
D|-------------------------------|
A|-------------------------------|
E|-------------------------------|

E|----------------------------------------------------------|
B|----------------------------------------------------------|
G|-12-14-12-11-12-11----------------------------------------|
D|-------------------14-12-14-12----------------------------|
A|-------------------------------14-12----------------------|
E|-------------------------------------15-14-15-14-12-10-12-|

E|-------------------|
B|-------------------|
G|-------------------|
D|-------------------|
A|-------------------|
E|-10-10-12-12-10-10-|

E|-------------------------------------------------------------|
B|---------------------9-------9-------9-------9--9--9-------9-|
G|-------------9-------9-------9-------9-------9--9--9-------9-|
D|-----9-------9-------9-------9-------9-------9--9--9-------9-|
A|-7-7-7-7-7-7-7-7-7-7-7-7-7-7-7-7-7-7-7-7-7-7-7--7--7-------7-|
E|-------------------------------------------------------------|

E|--------------------------|----------------------------------|
B|-9------------------------|--------------------------------9-|
G|-9-----7-----7-----7----7-|----------------------------9-----|
D|-9-----7-----7-----7----7-|-----------------6------9---------|
A|-7-----7-----7-----7----7-|-------------7------9/11----------|
E|-------5-----5-----5----5-|-0---0---7------------------------|

E|----------14b16-14-12----------------------------------------|
B|-12-15b17--------------14-12---------------------------------|
G|------------------------------14-13--11-9--------------------|
D|-------------------------------------------11-9--------------|
A|-------------------------------------------------12-11---9-7-|
E|-------------------------------------------------------------|

E|-------------|
B|-------------|
G|---------4---|
D|---------5---|
A|---------5---|
E|-9-7---5-3---|

E|-------------------------------------------------------------|
B|----------------------------------------------------12-12----|
G|--------------------------------------------12------------12-|
D|---------------------5---5-5/9-9-9-12-12-12----12-12---------|
A|---------------5-5-5---5-------------------------------------|
E|-3-3-3-3/7-7-7-----------------------------------------------|

E|-------------------12----------------------|
B|-15-12-15-12-15-15----15-13-12-------------|
G|-------------------------------14-12----12-|
D|-------------------------------------14----|
A|-------------------------------------------|
E|-------------------------------------------|

E|----------------------------------|
B|----------------------------------|
G|----------------------------------|
D|-14-12----------------------------|
A|-------15-14-15-14-12----12-------|
E|----------------------15----15-12-|

E|-------------------------------------|
B|-------------------------------------|
G|-------------------------------------|
D|-------------------------------------|
A|-------------------------------------|
E|-15-12-10-12-10-8-10-8-7-8-7-5-7-5-3-|

E|-----------------------------------|
B|-----------------------------------|
G|-------------4---4---4---4---4---4-|
D|---------5---5---5---5---5---5---5-|
A|-5---5---5---5---5---5---5---5---5-|
E|-3---3---3---3---3---3---3---3---3-|

E|-17b18---18r17p15--------------|-17b18---rp15----------|-----|
B|-----------------17---17p15----|-------------17--p15---|-----|
G|---------------------------17--|--------------------17-|--0/-|
D|-------------------------------|-----------------------|--/0-|
A|-------------------------------|-----------------------|-----|
E|-------------------------------|-----------------------|-----|

E|-------------------------------------------------------------|
B|-------------------------------------------------------------|
G|-15--14-12--10-----------------------------------------------|
D|---------------12--10-8--7-5-------------------------------3-|
A|-------------------------------8-6---5-3-------------------3-|
E|-------------------------------------------6-5---3-1---3---1-|

E|-------------||-------------||-------------------------------|
B|-------------||-------------||-------------------------------|
G|-------------||-------------||-------------------------------|
D|-------9---7-||-------9---7-||--------9---7------------9-9-7-|
A|-------------||-------------||--------------7h9-7------------|
E|-x-7-7---7---||-7-7-7---7---||-5-7--7---7---------7--7-------|

E|-------------------------------------------------------------|
B|-10b12--10b12---------------------------------------10b12-10-|
G|-------------------------------------------------------------|
D|----------------9---9-7---7----------------9-----------------|
A|----------------------------7h9-9----------------------------|
E|-------------------------------------7---7-----7-7-----------|

E|-------------------------------------------------------------|
B|-------------------------------------------------------------|
G|-11-11-9-9-7-7-----------------------------------------------|
D|---------------9---9-7---7-----------------------------------|
A|---------------------------9---9-7---7-----------------------|
E|---------------------------------------10---10-9---9-7---7-5-|

E|-------------------------------------------------------|
B|-------------------------------------------------------|
G|-------------------------------------------------------|
D|---------9-----7---7-------------9-----7---------7-----|
A|---------------------7h9-9-------------------7h9-------|
E|-5-7---7-----7-------------7---7-----7-----7---------7-|

E|------------|--------|------------5---5--5---5--5---5--5---5-|
B|------------|--------|------7--7--5-7-5--5-7-5--5-7-5--5-7-5-|
G|------------|---0/---|------7--7--6-7-6--6-7-6--6-7-6--6-7-6-|
D|---9-----7--|---/0---|---9--7--7--7-7-7--7-7-7--7-7-7--7-7-7-|
A|---9-----7--|--------|---9--7--7--7-7-7--7-7-7--7-7-7--7-7-7-|
E|-7-----7----|10 times|-7----5--5--5-5-5--5-5-5--5-5-5--5-5-5-|

E|-5-----------------------------------------------------------|
B|-5-----------------------------------------------------------|
G|-6-------------------7-7-------------------------------------|
D|-7-------9-------7---7-7-------------------------9---9-7---9-|
A|-7-------7-------5-------------------7-----------------------|
E|-5----------------------/7-7-7-7-7-7-----7-7-7-7-------------|

E|-----------------------------------------------10p7----------|
B|------------------------10p7------------------------10-7-----|
G|--------9---9-7--------------9-7---------------------------9-|
D|----------8------------------------9-------------------------|
A|-------------------------------------------------------------|
E|-7-7--7---------7-7-7-7----------------7-7---7---------------|

E|-------------------------------------------------------------|
B|-----------------------------------------10p7----7-----------|
G|-------9p7---7--------------------------------10-----9p7---7-|
D|-----------9---9-----7-----------------------------------9---|
A|-----------------9-9----9p7----------------------------------|
E|-0-7-7----------------------7-7---7-10-----------------------|

E|--------------------|
B|--------------------|
G|--------------------|
D|-9p7---7------------|
A|-----9-----9p7------|
E|---------------10-7-|

E|---------------------------------------------------------|
B|---------------------------------------------------------|
G|---------------------------------------------------------|
D|---------------------------------------------------------|
A|---------------------------------6-6-6-6-6-7-9-9-9-9-9-9-|
E|-7-7-7-7-7-7-7-7-7-7-7-7-7-7-7-7-------------------------|

E|---------------------------------------------------|
B|---------------------------------------------------|
G|---------------------------------------------------|
D|-9-9-9-9-9-9-9/13-13-13-13-13-13-16-16-16-16-16-16-|
A|---------------------------------------------------|
E|---------------------------------------------------|

E|-------------------|
B|-------------------|
G|-16-16-16-16-16-16-|
D|-------------------|
A|-------------------|
E|-------------------|

E|-------------------14-14-14-14-14--|
B|-16-16-16-16-16-16-----------------|
G|-----------------------------------|
D|-----------------------------------|
A|-----------------------------------|
E|-----------------------------------|

  with the same finger
E|--16b18_________let ring__________________|--|
B|-(16b17)---x-x-x-x-x-x-x-x......slowing down-|
G|------------------------------------------|--|
D|------------------------------------------|--|
A|------------------------------------------|--|
E|------------------------------------------|--|

E|-------18b19-r1816--------14----------12---------10----------|
B|-------------------17---------15----------13---------11------|
G|-16-16-----------------16---------14----------12----------10-|
D|-------------------------------------------------------------|
A|-------------------------------------------------------------|
E|-------------------------------------------------------------|

E|-8-------8-----8--------6------------------------------------|
B|---10------8-----8----------8--6-----------------------------|
G|------10-----9------8-------------8--7-----------------------|
D|----------------------------------------10--8----------------|
A|-----------------------------------------------10--8---------|
E|------------------------------------------------------11--10-|

E|------|-------------|-------|---|
B|------|-------------|-------|-6-|
G|------|-------------|---0/--|-7-|
D|------|-10-10-10-10-|---/0--|-8-|
A|------|-10-10-10-10-|-------|-8-|
E|-8--6-|--8--8--8--8-|4 times|-6-|

E|--------------|--8---------|--------|
B|--8---8--6--6-|--8---10--8-|--------|
G|--9---9--7--7-|--9---10--9-|---0/---|
D|-10--10--8--8-|-10---10-10-|---/0---|
A|-10--10--8--8-|------------|--------|
E|--8---8--6--6-|------------|3 times-|

E|-------------------------------------------------------------|
B|-------------------------------------12/13-13-15/17-17-/20-20|
G|-------------------------------12-12-------------------------|
D|--------------------9-10-12-14-------------------------------|
A|---------------10-10-----------------------------------------|
E|3/7-8-10/12-12-----------------------------------------------|

E|-19b20-20--|-|-------|-3------|-------|-|
B|------------|-|----5--|-3---5--|--------|
G|------------|-|-4--5--|-4---5--|---0/---|
D|------------|-|-------|-5---5--|---/0---|
A|------------|-|-------|--------|--------|
E|------------|-|-------|--------|3 times-|

 11`02"
E|-------------------------------------------|
B|-------------------------------------------|
G|-------------------------------------777999|
D|----------------------------555777999------|
A|----------------------555777---------------|
E|-000000...000333555777---------------------|

E|-----------------------------|
B|-----------------------------|
G|-12-12-12-12/14-14-14-12b----|
D|-12-12-12-12/14-14-14-----14-|
A|-----------------------------|
E|-----------------------------|
                        echo off
                        <
E|-------------------------------------------------------------|
B|-----------14-12----14--------14--------12-12----14-12-12----|
G|-14-12b----14-12----14-12b----14-12b----12-12-14-14-12-12-14-|
D|--------14-------14--------14--------14-------14----------14-|
A|-------------------------------------------------------------|
E|-------------------------------------------------------------|

E|-------|------|-|
B|-15----|------|-|
G|-14b16-|--0/--|-|
D|-------|--/0--|-|
A|-------|------|-|
E|-------|7 times-|

 C# F# C# C# C# F# C# F#
 B E B E B E F#
 B E B E B E F#

E|-----|------------------------------------------12---12------|
B|-----|------------------------------------------12---12---12-|
G|-----|----------------------------------------------------12-|
D|-----|--7----9-9-7-7-9-9-9-7--7-9-9-9-7-----9----------------|
A|-----|--7----9-9-7-7-9-9-9-7--7-9-9-9-7-----9----------------|
E|-5-7-|-7---7-7-7-7-7-7-7-7-7--7-7-7-7-7---7------------------|

E|----------------------------------------|
B|--------------------------------2-------|
G|----0-----0---------------------2-------|
D|-0----0h2---2p0------(0)--------2-------|
A|----------------2-0h2---2-0-----0-------|
E|----------------------------3-0------3b-|

E|-------------------------------|-----------------------------|
B|--------------------------2----|-----------------------------|
G|----0---------------------2----|-------0---------------------|
D|-2----2p0-----------------2----|-(0)h2---2p0-----------------|
A|----------2-2-0---2-0-----0----|---------------0-2---2-0-----|
E|----------------3-----3-0---3b-|-------------------------3-0-|

E|----------------------------------|
B|--------------------------------3-|
G|-2b3rp0-------------------------4-|
D|--------2-0---------------------5-|
A|------------2-1-0---------------5-|
E|------------------3-0-0-0-0-0-0-0-|

Интересные статьи

Собчак снова опозорила Волочкову
2011-12-04
Всем известно о давнем соперничестве между скандальной телеведущей Ксенией Собчак и балериной Анастасией Волочковой, которое видимо закончится не скоро.
> читать полностью

1 - Сайт содержит тексты песен, аккорды, табулатуры