Все песни

Все исполнители

Bicycle Race (2 вариант)

Автор: Queen

guitar solo

more gtrs arr for one
E|----------------------17h18p17....-|
B|--------------16h17p16-------------|
G|------14h15p14.....----------------|
D|-7h8p7.....------------------------|
A|-----------------------------------|
E|-----------------------------------|

E|-------7910---------------7910----------|
B|---7810---------7910--7810---------7910-|
G|-79----------679----79----------679-----|
D|7----------79------7----------79------7-|
A|----------7------------------7----------|
E|----------------------------------------|

E|-------121415------91112------111212b14-----------|
B|-----15--------4512--------------------16b17------|
G|---78--------46-------------89--------------18b19-|
D|..9-----------------------89----------------------|
A|------------------------67------------------------|
E|--------------------------------------------------|

Интересные статьи

Собчак снова опозорила Волочкову
2011-12-04
Всем известно о давнем соперничестве между скандальной телеведущей Ксенией Собчак и балериной Анастасией Волочковой, которое видимо закончится не скоро.
> читать полностью

1 - Сайт содержит тексты песен, аккорды, табулатуры