Все песни

Все исполнители

Back Chat

Автор: Queen

intro
E|-------12--------8----------10-----------13---------15-|
B|----13---------8---------10-----------13---------15----|
G|-14----------9--------11-----------14---------16-------|
D|-------------------------------------------------------|
A|-------------------------------------------------------|
E|-------------------------------------------------------|

solo
E|---------------------------12--------------------------------|
B|-13b15---13vvv-----13--15------13b15--13vvv---12h13-13p12----|
G|--------------------(13)----------------------------------14-|
D|-------------------------------------------------------------|
A|-------------------------------------------------------------|
E|-------------------------------------------------------------|

E|-----------------|
B|-12--------------|
G|----14b16---14vv-|
D|-----------------|
A|-----------------|
E|-----------------|

E|-------------12---------------------------12---------12-----|
B|-12--13--15------15b17vv----15---13-15b17------15b17------x-|
G|---------------------------------------------------------x--|
D|------------------------------------------------------------|
A|------------------------------------------------------------|
E|------------------------------------------------------------|

E|-----12-|
B|-b17----|
G|--------|
D|--------|
A|--------|
E|--------|

E|-----------------------------------------------------------|
B|-17r15p13---12-13------------------------------------------|
G|------------------14v---12---------------------------------|
D|----------------------------13r12p10--12p10------12/14-12--|
A|--------------------------------------------12-------------|
E|-----------------------------------------------------------|

E|-----------------------------------|
B|-----------------------------------|
G|-12--12------_____-----------------|
D|---------10--13r12--10--12---------|
A|----------------------------10--12-|
E|-----------------------------------|

E|-----------19b21---------------------------------------------|
B|-20b22---------------20b22___b22---22r20___p17-20p17---------|
G|-----------------------------------------------------20--19--|
D|-------------------------------------------------------------|
A|-------------------------------------------------------------|
E|-------------------------------------------------------------|

E|---------------|
B|---------------|
G|-17b-------x-x-|
D|-----19/-x-x---|
A|---------------|
E|---------------|

E|-----------------------------------------20b22----20p17-|
B|-20------20----(0)---20b22---20-19---x------------------|
G|-19b21---19b21-----------------------x------------------|
D|-------------------------------------x------------------|
A|-------------------------------------x------------------|
E|-------------------------------------x------------------|

E|-------------------------------------|
B|-20p17-------------------------------|
G|-------20p19p17----------------------|
D|----------------19-17----________----|
A|----------------------19-18-17-15----|
E|----------------------------------17-|

Интересные статьи

Собчак снова опозорила Волочкову
2011-12-04
Всем известно о давнем соперничестве между скандальной телеведущей Ксенией Собчак и балериной Анастасией Волочковой, которое видимо закончится не скоро.
> читать полностью

1 - Сайт содержит тексты песен, аккорды, табулатуры