Все песни

Все исполнители

`39

Автор: Queen

fretless bass                 bass-tablature
G|-------|--------|--------|-------|--------|--------|---------|
D|5---5--|--------|--------|-------|--------|7-------|---------|
A|--5---5|5---5--5|7---7--5|3-3----|5---5--5|----5-5-|-3---3--3|
E|-------|--5---5-|--7---7-|----3-3|--5---5-|--0-----|---3---3-|

G|--------|------/4-|---------|------------|---------|-----54--|
D|------4/|5---5---5|---------|---4/7-7-10-|-2---4-5-|-7-----70|
A|5---5---|--5------|-5---5--5|-6----------|---2-----|---------|
E|--5-----|---------|---5---5-|------------|---------|---------|

G|-------4|-----|-----------|------------|----------|------0---|
D|5---5-5-|-----|--2--------|------------|-5---5--5-|---24---0-|
A|--5-----|5---5|3---3-5-3--|5-5-5-5-5-5-|---5---5--|-3--------|
E|--------|--5--|----------3|------------|----------|----------|

G|0---0-4|--2/7-7|---------|-----|-------------|---------------|
D|--0----|0------|5-4-2/5-0|-----|-------------|5-5--5-5--5----|
A|-------|-------|---------|3-2-0|2-2/3-5-/7-/9|------------1/6|
E|-------|-------|---------|-----|-------------|---------------|

G|-------|------|
D|-------|------|
A|-6-5-3-|-3/12-|
E|-------|------|

G|------------|--------|--------|--------|---------|-----------|
D|5--55-55-5-5|--------|--------|--------|---------|-----------|
A|------------|5---5-5-|57---7--|3-3-----|-5---5---|-5/7---5-5-|
E|------------|--5----5|---7---7|----3-3-|---5---5-|-----0-----|

G|--------|--------|-------/4-|-------|--------|-------|---54--|
D|--------|------4/|5---5----5|-------|--4/7-10|2---4-5|7----70|
A|3---33-3|5---5---|--5-------|5---5--|6-------|--2----|-------|
E|--3---3-|--5-----|----------|--5---5|--------|-------|-------|

G|-------4|-----|------------|-----------|---------|-----------|
D|5---5-5-|-----|--2---------|-----------|5---5--5-|---24-5----|
A|--5-----|5---5|3---3-5-3---|5-5-5-5-5-5|--5---5--|-3------5--|
E|--------|--5--|----------33|-----------|---------|-----------|

G|------4|---2/777|-------|---------|------------|-------------|
D|5---5--|--------|5-4-2-0|---------|------------|-------------|
A|--5----|5-------|-------|-3-2-0---|-2/5-7-9/10-|-5-5-5-5-5-5-|
E|-------|--------|-------|---------|------------|-------------|

G|----------|----------|--------|---4754-|---------|-----|-----|
D|-5-5-5-5--|--2345-5--|5-5-5-55|047----7|55442/500|-----|-----|
A|--5-5-5-5-|-3----5-5-|-5-5-5--|--------|---------|3-2-0|--5--|
E|----------|----------|--------|--------|---------|-----|0---3|

G|----------|------------------|
D|----------|--------/9-5-5----|
A|---45-7/9-|-10-1010------5---|
E|----------|----------------3-|

Интересные статьи

Собчак снова опозорила Волочкову
2011-12-04
Всем известно о давнем соперничестве между скандальной телеведущей Ксенией Собчак и балериной Анастасией Волочковой, которое видимо закончится не скоро.
> читать полностью

1 - Сайт содержит тексты песен, аккорды, табулатуры