Все песни

Все исполнители

Time Of Dying

Автор: Bob Dylan

Standard tuneing (eadgbe) use capo on 2fret


Dylan uses a slide in this
song the sympal < and > is the direation
the slide is used.

e]----------- -----------------
b]----0-0---- ------<5>--------
g]-------3-0- -----------------
d]--0-------2 --0--------------
a]---2------- ---2-------------
e]0---------- 0---------0-0-0-0
In my time of dying dont want nobody to mooan.....

e]----------- -----------------
b]----0-0---- ------<5>--------
g]-------3-0- -----------------
d]--0-------2 --0--------------
a]---2------- ---2-------------
e]0---------- 0---------0-0-0-0

Интересные статьи

Собчак снова опозорила Волочкову
2011-12-04
Всем известно о давнем соперничестве между скандальной телеведущей Ксенией Собчак и балериной Анастасией Волочковой, которое видимо закончится не скоро.
> читать полностью

1 - Сайт содержит тексты песен, аккорды, табулатуры