Все песни

Все исполнители

Milk Cows Half Blues

Автор: Bob Dylan

Capo: 8/10th fret

E7
: . . : . . . : . . .
---|---0-----0---------|---------------------0-|---------0-----0-----0---------|
---|/3---3-------------|-----------------0h3---|-------------------------------|
---|/3----/3---3-------|-----------------0-----|------/3---3/3---3/3---3-------|
---|-------------5p3-0-|---------0-------------|-------------------------5p3-0-|
---|-------------------|-----0h3---------------|-------------------------------|
-0-|-0---0-0---0---0---|-0-0-------0---0-0-----|-0---0-0---0-0---0-0---0-0-----|

: . . . : . . . : . . .
|---------------------0---||---0-----0-----0-----0---|---0-----0-----0-----0---|
|-------------------------||-------------------------|-------------------------|
|-------------------3---3-||-3---3-3---3-3---3-3---3-|-3---3-3---3-3---3-3---3-|
|-----------0-------------||-------------------------|-------------------------|
|-------0h3---------------||-------------------------|-------------------------|
|-0---0-------0---0-0---0-||-0---0-0---0-0---0-0---0-|-0---0-0---0-0---0-0---0-|
Well I woke up this morning looked all around
A
: . . . : . . . : . . .
|---0-----0-----0-----0---|---0-----0-----0-----0---|---0-----0-----0-----0---|
|-------------------------|-------------------------|-------------------------|
|-3---3-3---3-3---3-3---3-|-3---3-3---3-3---3-3---3-|-1---1-1---1-1---1-1---1-|
|-------------------------|-------------------------|-------------------------|
|-------------------------|-------------------------|-2---2-2---2-2---2-2---2-|
|-0---0-0---0-0---0-0---0-|-0---0-0---0-0---0-0---0-|-------------------------|
see my milkcow, but she can't be found, please
holler
A7 E7
: . . . : . . . : . . .
|---0---3---3---3---3---3-|-0-------0-----0---------|-----------------0-------|
|-------------------------|-------------------------|-----------------0-------|
|-1---1---1---1---1---1---|-0---3/3---3-3---3-------|-----------------0-------|
|-------------------------|-------------------5p3-0-|-----------0-------------|
|-2---2-----2-----2-----2-|(0)----------------------|-------0h3---------------|
|-------------------------|-------0-----0-----0-----|-0---0-------0-----0---0-|
please don't do don't do If you see
me wrong me wrong
E7-10 E7 A7 E7
: . . . : . . . : . . .
|-3-3-3-3-3-3-3---3-3---3-|(0)------------------3---|---------0-----0---------|
|(3)----------------------|-3-3-3-3-3-3-------------|------/3-----------------|
|(0)----------------------|-3-3-3-3-3-3-1---1-1---1-|-0----/3---3-3---3-------|
|-------------------------|-------------------------|-------------------5p3-0-|
|-------------------------|(0---0-0---0)2---2-2---2-|-------------------------|
|-0---0-0---0-0---0-0---0-|-0---0-0---0-------------|-0---0-0-0---0---0-0-----|
my milkcow Lord Lord send her home

: . . . :
|-----------------0-------||---0----
|-----------------0-------||/3------
|-----------------0-------||/3---3-- etc.
|-----------0-------------||--------
|-------0h3---------------||--------
|-0---0-------0-----0---0-||--------
Well, I . . .

E7
Well I woke up this morning, looked all around

see my milkcow, but she can't be found,
A A7 E7
holler please, please don't do me wrong, don't do me wrong
E7-10 E7*) A7 E7
If you see my milkcow, Lord, Lord send her home!
Well, I woke up this morning, blues around my bed
coudn't even eat my breakfast ,blues in my bed
holler please, please don't do me wrong, don't do me wrong
If you see my milkcow, Lord, Lord send her home!
Mama, your calf is hungry I believe she needs a suck
But your milk is turning blue, I believe she's out of luck
holler please, please don't do me wrong, don't do me wrong
If you see my milkcow, Lord God, send her home!
Well, since my milk cow left me, I been a-treated wrong
I ain't had no milk an butter since my cow been gone
holler please, please don't do me wrong, don't do me wrong
If you see my milkcow, Lord, Lord, send her home, send her home!

Интересные статьи

Собчак снова опозорила Волочкову
2011-12-04
Всем известно о давнем соперничестве между скандальной телеведущей Ксенией Собчак и балериной Анастасией Волочковой, которое видимо закончится не скоро.
> читать полностью

1 - Сайт содержит тексты песен, аккорды, табулатуры