Все песни

Все исполнители

House Of The Rising Sun

Автор: Bob Dylan

Holding A minor Holding C holding D Holding F
E|---------0----------------------0----------2------------1----|
B|-------1---1----------------1------1-----1-----------1-----1-|
G|-----2-------2-----------0-------------2----------2----------|
D|-2---------------------2-------------2-------0-3-------------|
A|---0--------------0-3----------------------------------------|
E|-------------------------------------------------------------|

Holding A minor Holding C Holding E major Holding E major
E|-------------0-------------------0---------------------0---0-|
B|----------1----1--------------1----1---------------0-------0-|
G|-------2-------------------0-------------------2-----------1-|
D|-3--2------------------------------------------------------2-|
A|-------------------0---3----------------3--2---------------2-|
E|-----------------------------------------------------------0-|

Интересные статьи

Собчак снова опозорила Волочкову
2011-12-04
Всем известно о давнем соперничестве между скандальной телеведущей Ксенией Собчак и балериной Анастасией Волочковой, которое видимо закончится не скоро.
> читать полностью

1 - Сайт содержит тексты песен, аккорды, табулатуры