Все песни

Все исполнители

Boots Of Spanish Leather

Автор: Bob Dylan

|--------|--------|--------|--------|--------|
|--0----1|--1----0|--0----1|--1----0|--0----0|
|-----0--|-----0--|-----0--|-----0--|-----0--|
|--0---0-|--2---2-|--0---0-|--2---2-|--0---0-|
|--------|--------|--------|--------|--------|
|3---3---|3---3---|3---3---|3---3---|3---3---|



|--------|--------|--------|--------|--------|--------|
|--0-----|--3----3|---0-0-0|---01---|--0----1|--1----0|
*|-----0-0|-----0--|--------|-2---2--|-----0--|-----0--|
*|--0---0-|--2---2-|--2---2-|--0---0-|--0---0-|--2---2-|
|--------|--------|--------|--------|--------|--------|
|3---3---|0---0---|0---0---|2---2---|3---3---|3---3---|



|--------|--------|--------|--------|--------|
|--0-----|--3----3|---01---|--0----1|--1----0|
|-----0-0|-----0--|-2---2--|-----0--|-----0--|
|--0---0-|--2---2-|--0---0-|--0---0-|--2---2-|
|--------|--------|--------|--------|--------|
|3---3---|0---0---|2---2---|3---3---|3---3---|



|--------|--------|--------|--------|--------|--------|
|--0-----|--3----3|--3-----|-1------|--0----1|--1----0|
|-----0-0|-----0--|-----0--|---0-2-2|-----0--|-----0--|
|--0---0-|--2---2-|--2---2-|--2---0-|--0---0-|--2---2-|
|--------|--------|--------|3-------|--------|--------|
|3---3---|0---0---|0---0---|----2---|3---3---|3---3---|



|--------|--------|--------|--------|---01---|--------|
|--0-----|--3----3|---01---|--0-----|-----3--|--0-----|
|-----0-0|-----0--|-2---2--|-----0-0|-2-----2|-----0-0|*
|--0---0-|--2---2-|--0---0-|--0---0-|--0---0-|--0---0-|*
|--------|--------|--------|--------|--------|--------|
|3---3---|0---0---|2---2---|3---3---|2---2---|3---3---|

Интересные статьи

Собчак снова опозорила Волочкову
2011-12-04
Всем известно о давнем соперничестве между скандальной телеведущей Ксенией Собчак и балериной Анастасией Волочковой, которое видимо закончится не скоро.
> читать полностью

1 - Сайт содержит тексты песен, аккорды, табулатуры