Все песни

Все исполнители

All Along The Watchtower (2 вариант)

Автор: Bob Dylan

Capo 4th fret, sounding key C# minor

G played G6

Intro:
(open power chord)

Em

E-----------------------------------------------------
B-----------------------------------------------------
G-----------------------------------------------------
D-----------------------------------------------------
A-----------------------------------------------------
E----------------------------------------------0------


---------------------------------------------------------
If you just want to use standard chords the chords

The song is a three chord progression in the pattern of:

Am G F G, Am G F G, Am G F G, over and over, etc.

---------------------------------------------------------

The powerchord version of the song goes as following:


E----------------------------------------------------
B----------------------------------------------------
G----------------------------------------------------
D--------------------7----7----7---------------------
A--------------------7----7----7---------------------
E--------------------5----5----5---------------------

E----------------------------------------------------
B----------------------------------------------------
G----------------------------------------------------
D--------------------5----5--------------------------
A--------------------5----5--------------------------
E--------------------3----3--------------------------

E----------------------------------------------------
B----------------------------------------------------
G----------------------------------------------------
D-------------------3----3----3----------------------
A-------------------3----3----3----------------------
E-------------------1----1----1----------------------

E----------------------------------------------------
B----------------------------------------------------
G----------------------------------------------------
D--------------------5----5--------------------------
A--------------------5----5--------------------------
E--------------------3----3--------------------------

You repeat this progression throughout the whole song.
End on the G note.

Интересные статьи

Собчак снова опозорила Волочкову
2011-12-04
Всем известно о давнем соперничестве между скандальной телеведущей Ксенией Собчак и балериной Анастасией Волочковой, которое видимо закончится не скоро.
> читать полностью

1 - Сайт содержит тексты песен, аккорды, табулатуры